Guitar Tabs, Chords and Lyrics
Major upgrade!! After one year development the new version of Chordie is now online! Please give feedback.


All in the Family  Korn

Gtr I (A D G C F A D) - 'Munky (Left)'
Gtr II (A D G C F A D) - 'Head (Right)'
Gtr III (A D G C F A D) - 'Munky (Left)'
Gtr IV (A D G C F A D) - 'Head (Right)'
Intro
Moderately Slow Rock Q=96
[B5]  
[4/4] Gtr I
PM PM| PM PM|
Q E E E E E E Q E E E E E E
 
 ||-----0-0-----0---|----0-0-----0----||
 ||-----7-7-----6-0-|----7-7-----6-0--||
 ||o--------------5-|--------------5-o||
 ||-----------------|-----------------||
 ||o----------------|----------------o||
 ||--2------2-2-----|-2------2-2------||
 ||--0------0-0-----|-0------0-0------||

1.,2.,3. 4.
Gtrs I, II
PM PM| PM PM| PM PM|
Q E E E E E E Q E E E E E E 4x Q E E E E Q
 
 ||-----0-0-----0---|----0-0-----0----||----0-0--------|
 ||-----7-7-----6-0-|----7-7-----6-0--||----7-7--------|
 ||o--------------5-|--------------5-o||---------------|
 ||-----------------|-----------------||---------------|
 ||o----------------|----------------o||---------------|
 ||--2------2-2-----|-2------2-2------||-2------2-2-2--|
 ||--0------0-0-----|-0------0-0------||-0------0-0-0--|

Verse
N.C.
Gtr III
~~~~~~~~~~~~~~~~~~~~~~~~~~~~~~~~~~~~~~~~~ ~~~~~~~
Q. Q. Q Q. E E E E E 3x
 
 ||--[7]-------[6]-----------------|-------[5]---[4]--------||
 ||------------------------[5]-----|-[4]-------------[3]----||
 ||o-------------------------------|-----------------------o||
 ||--------------------------------|------------------------||
 ||o-------------------------------|-----------------------o||
 ||--------------------------------|------------------------||
 ||--------------------------------|------------------------||

|
| Gtr IV
| E S S E E S S S S S E S W 3x
 
 ||--------------------------------|------------------------||
 ||--12--x-x-x-12--x-x-x-x--x--x-x-|------------------------||
 ||o-12--x-x-x-12--x-x-x-x--x--x-x-|-----------------------o||
 ||--------------------------------|------------------------||
 ||o-------------------------------|-----------------------o||
 ||--------------------------------|------------------------||
 ||--------------------------------|------------------------||

~~~~~~~~~~~~~~~~~~~~~~~~~~~~~~~~~~~~~ ~~~~~~~
Q. Q. Q Q. E E E E E
 
 |-[7]--------[6]------------|-------[5]---[4]-------|
 |----------------------[5]--|-[4]-------------[3]---|
 |---------------------------|-----------------------|
 |---------------------------|-----------------------|
 |---------------------------|-----------------------|
 |---------------------------|-----------------------|
 |---------------------------|-----------------------|

|
| E E S S E E Q. W
 
 |---------------------------|-----------------------|
 |-12--12-x-x-12--12---------|-----------------------|
 |-12--12-x-x-12--12---------|-----------------------|
 |---------------------------|-----------------------|
 |---------------------------|-----------------------|
 |---------------------------|-----------------------|
 |---------------------------|-----------------------|

Breakdown
[C#5]Gtr I[B5] [D5] [C#5] [B5] [D5]
E E E E E E E E E E E E E E E E 4x
 
 ||--------------------------------|--------------------------------||
 ||--------------------------------|--------------------------------||
 ||o-------------------------------|-------------------------------o||
 ||--------------------------------|--------------------------------||
 ||o-------------------------------|-------------------------------o||
 ||---4--4--4--4--2--2--5-----5----|--4--4--4--4--2--2--5-----5-----||
 ||---2--2--2--2--0--0--3-----3----|--2--2--2--2--0--0--3-----3-----||

|
| Gtr II
| ~~~~~~~~~~~~~~~~~ ~~~~~~~~~~~~~~~~~
| E E E E E E S S S S E E E E E E S S S S 4x
 
 ||--------------------------------|--------------------------------||
 ||--------------------19-20-19-20-|-------------------19-20-19-20--||
 ||o-18-18-18-18-18-18-------------|-18-18-18-18-18-18-------------o||
 ||--------------------------------|--------------------------------||
 ||o-------------------------------|-------------------------------o||
 ||--------------------------------|--------------------------------||
 ||--------------------------------|--------------------------------||

Verse
N.C.
Gtr III
~~~~~~~~~~~~~~~~~~~~~~~~~~~~~~~~~~~~~~~~~ ~~~~~~~
Q. Q. Q Q. E E E E E 3x
 
 ||--[7]-------[6]-----------------|-------[5]---[4]--------||
 ||------------------------[5]-----|-[4]-------------[3]----||
 ||o-------------------------------|-----------------------o||
 ||--------------------------------|------------------------||
 ||o-------------------------------|-----------------------o||
 ||--------------------------------|------------------------||
 ||--------------------------------|------------------------||

|
| Gtr IV
| E S S E E S S S S S E S W 3x
 
 ||--------------------------------|------------------------||
 ||--12--x-x-x-12--x-x-x-x--x--x-x-|------------------------||
 ||o-12--x-x-x-12--x-x-x-x--x--x-x-|-----------------------o||
 ||--------------------------------|------------------------||
 ||o-------------------------------|-----------------------o||
 ||--------------------------------|------------------------||
 ||--------------------------------|------------------------||

~~~~~~~~~~~~~~~~~~~~~~~~~~~~~~~~~ ~~~~~~~
Q. Q. Q Q. E E E E E
 
 |-[7]---[6]--------|------------[5]----[4]-------|
 |-------------[5]--|-[4]-------------------[3]---|
 |------------------|-----------------------------|
 |------------------|-----------------------------|
 |------------------|-----------------------------|
 |------------------|-----------------------------|
 |------------------|-----------------------------|

|
| W E E S S E E Q.
 
 |------------------|-----------------------------|
 |------------------|-12--12-x-x-12--12-----------|
 |------------------|-12--12-x-x-12--12-----------|
 |------------------|-----------------------------|
 |------------------|-----------------------------|
 |------------------|-----------------------------|
 |------------------|-----------------------------|

Breakdown
[C#5]Gtr I[B5] [D5] [C#5] [B5] [D5]
E E E E E E E E E E E E E E E E 4x
 
 ||--------------------------------|--------------------------------||
 ||--------------------------------|--------------------------------||
 ||o-------------------------------|-------------------------------o||
 ||--------------------------------|--------------------------------||
 ||o-------------------------------|-------------------------------o||
 ||---4--4--4--4--2--2--5-----5----|--4--4--4--4--2--2--5-----5-----||
 ||---2--2--2--2--0--0--3-----3----|--2--2--2--2--0--0--3-----3-----||

|
| Gtr II
| ~~~~~~~~~~~~~~~~~ ~~~~~~~~~~~~~~~~~
| E E E E E E S S S S E E E E E E S S S S 4x
 
 ||--------------------------------|--------------------------------||
 ||--------------------19-20-19-20-|-------------------19-20-19-20--||
 ||o-18-18-18-18-18-18-------------|-18-18-18-18-18-18-------------o||
 ||--------------------------------|--------------------------------||
 ||o-------------------------------|-------------------------------o||
 ||--------------------------------|--------------------------------||
 ||--------------------------------|--------------------------------||

Interlude
N.C.
Gtr I
Q +E E E +E E E E +H E Q
 
 |----------------------|-----------------|
 |----------------------|-----------------|
 |----------------------|-----------------|
 |-5--(5)S6S5-(5)S17S15S|=5-(5)----5S17\--|
 |----------------------|-----------------|
 |-5--(5)S6S5-(5)S17S15S|=5-(5)----5S16\--|
 |----------------------|-----------------|

Chorus
1.,2.,3. 4.
[B5]Gtrs I, II
PM PM| PM PM| PM PM|
Q E E E E E E Q E E E E E E 4x Q E E E E Q
 
 ||-----0-0-----0---|----0-0-----0----||----0-0--------|
 ||-----7-7-----6-0-|----7-7-----6-0--||----7-7--------|
 ||o--------------5-|--------------5-o||---------------|
 ||-----------------|-----------------||---------------|
 ||o----------------|----------------o||---------------|
 ||--2------2-2-----|-2------2-2------||-2------2-2-2--|
 ||--0------0-0-----|-0------0-0------||-0------0-0-0--|

[ Tab from: bttp://www.guitartabs.cc/tabs/k/korn/all_in_tbe_family_tab_ver_2.btml ] 
Breakdown
[C#5]Gtr I[B5] [D5] [C#5] [B5] [D5]
E E E E E E E E E E E E E E E E 4x
 
 ||--------------------------------|--------------------------------||
 ||--------------------------------|--------------------------------||
 ||o-------------------------------|-------------------------------o||
 ||--------------------------------|--------------------------------||
 ||o-------------------------------|-------------------------------o||
 ||---4--4--4--4--2--2--5-----5----|--4--4--4--4--2--2--5-----5-----||
 ||---2--2--2--2--0--0--3-----3----|--2--2--2--2--0--0--3-----3-----||

|
| Gtr II
| ~~~~~~~~~~~~~~~~~ ~~~~~~~~~~~~~~~~~
| E E E E E E S S S S E E E E E E S S S S 4x
 
 ||--------------------------------|--------------------------------||
 ||--------------------19-20-19-20-|-------------------19-20-19-20--||
 ||o-18-18-18-18-18-18-------------|-18-18-18-18-18-18-------------o||
 ||--------------------------------|--------------------------------||
 ||o-------------------------------|-------------------------------o||
 ||--------------------------------|--------------------------------||
 ||--------------------------------|--------------------------------||

Verse
N.C.
Gtr III
~~~~~~~~~~~~~~~~~~~~~~~~~~~~~~~~~~~~~~~~~ ~~~~~~~
Q. Q. Q Q. E E E E E 4x
 
 ||--[7]-------[6]-----------------|-------[5]---[4]--------||
 ||------------------------[5]-----|-[4]-------------[3]----||
 ||o-------------------------------|-----------------------o||
 ||--------------------------------|------------------------||
 ||o-------------------------------|-----------------------o||
 ||--------------------------------|------------------------||
 ||--------------------------------|------------------------||

|
| Gtr IV
| E S S E E S S S S S E S W 4x
 
 ||--------------------------------|------------------------||
 ||--12--x-x-x-12--x-x-x-x--x--x-x-|------------------------||
 ||o-12--x-x-x-12--x-x-x-x--x--x-x-|-----------------------o||
 ||--------------------------------|------------------------||
 ||o-------------------------------|-----------------------o||
 ||--------------------------------|------------------------||
 ||--------------------------------|------------------------||

Chorus
1.,2.,3. 4.
[B5]Gtrs I, II
PM PM| PM PM| PM PM|
Q E E E E E E Q E E E E E E 4x Q E E E E Q
 
 ||-----0-0-----0---|----0-0-----0----||----0-0--------|
 ||-----7-7-----6-0-|----7-7-----6-0--||----7-7--------|
 ||o--------------5-|--------------5-o||---------------|
 ||-----------------|-----------------||---------------|
 ||o----------------|----------------o||---------------|
 ||--2------2-2-----|-2------2-2------||-2------2-2-2--|
 ||--0------0-0-----|-0------0-0------||-0------0-0-0--|

Verse
N.C.
Gtr III
~~~~~~~~~~~~~~~~~~~~~~~~~~~~~~~~~~~~~~~~~ ~~~~~~~
Q. Q. Q Q. E E E E E
 
 ||--[7]-------[6]-----------------|-------[5]---[4]-------|
 ||------------------------[5]-----|-[4]-------------[3]---|
 ||o-------------------------------|-----------------------|
 ||--------------------------------|-----------------------|
 ||o-------------------------------|-----------------------|
 ||--------------------------------|-----------------------|
 ||--------------------------------|-----------------------|

|
| Gtr IV
| E S S E E S S S S S E S W
 
 ||--------------------------------|-----------------------|
 ||--12--x-x-x-12--x-x-x-x--x--x-x-|-----------------------|
 ||o-12--x-x-x-12--x-x-x-x--x--x-x-|-----------------------|
 ||--------------------------------|-----------------------|
 ||o-------------------------------|-----------------------|
 ||--------------------------------|-----------------------|
 ||--------------------------------|-----------------------|

~~~~~~~~~~~~~~~~~~~~~~~~~~~~~~~~~~~~~~~~~ ~~~~~~~
Q. Q. Q Q. E E E E E
 
 |-[7]-------[6]-----------------|-------[5]---[4]-------|
 |-----------------------[5]-----|-[4]-------------[3]---|
 |-------------------------------|-----------------------|
 |-------------------------------|-----------------------|
 |-------------------------------|-----------------------|
 |-------------------------------|-----------------------|
 |-------------------------------|-----------------------|

|
| E S S E E S S S S S E S W
 
 |-------------------------------|-----------------------|
 |-12--x-x-x-12--x-x-x-x--x--x-x-|-----------------------|
 |-12--x-x-x-12--x-x-x-x--x--x-x-|-----------------------|
 |-------------------------------|-----------------------|
 |-------------------------------|-----------------------|
 |-------------------------------|-----------------------|
 |-------------------------------|-----------------------|

Breakdown
[C#5]Gtr I[B5] [D5] [C#5] [B5] [D5]
[E] [E] [E] [E] [E] [E] [E] [E] [E] [E] [E] [E] [E] [E] [E] [E]  
 
 |-------------------------------|-------------------------------|
 |-------------------------------|-------------------------------|
 |-------------------------------|-------------------------------|
 |-------------------------------|-------------------------------|
 |-------------------------------|-------------------------------|
 |--4--4--4--4--2--2--5-----5----|--4--4--4--4--2--2--5-----5----|
 |--2--2--2--2--0--0--3-----3----|--2--2--2--2--0--0--3-----3----|

|
| Gtr II
| ~~~~~~~~~~~~~~~~~ ~~~~~~~~~~~~~~~~~
| E E E E E E S S S S E E E E E E S S S S
 
 |-------------------------------|-------------------------------|
 |-------------------19-20-19-20-|-------------------19-20-19-20-|
 |-18-18-18-18-18-18-------------|-18-18-18-18-18-18-------------|
 |-------------------------------|-------------------------------|
 |-------------------------------|-------------------------------|
 |-------------------------------|-------------------------------|
 |-------------------------------|-------------------------------|

[C#5] [B5] [D5] [C#5] [B5] [D5] 
[E] [E] [E] [E] [E] [E] [E] [E] [E] [E] [E] [E] [E] [E] [E] [E]  
 
 |-------------------------------|--------------------------------||
 |-------------------------------|--------------------------------||
 |-------------------------------|-------------------------------o||
 |-------------------------------|--------------------------------||
 |-------------------------------|-------------------------------o||
 |--4--4--4--4--2--2--5-----5----|--4--4--4--4--2--2--5-----5-----||
 |--2--2--2--2--0--0--3-----3----|--2--2--2--2--0--0--3-----3-----||

|
| ~~~~~~~~~~~~~~~~~ ~~~~~~~~~~~~~~~~~
| E E E E E E S S S S E E E E E E S S S S
 
 |-------------------------------|--------------------------------||
 |-------------------19-20-19-20-|-------------------19-20-19-20--||
 |-18-18-18-18-18-18-------------|-18-18-18-18-18-18-------------o||
 |-------------------------------|--------------------------------||
 |-------------------------------|-------------------------------o||
 |-------------------------------|--------------------------------||
 |-------------------------------|--------------------------------||

Chorus
1.,2.,3. 4.
[B5]Gtrs I, II
PM PM| PM PM| PM PM|
Q E E E E E E Q E E E E E E 4x Q E E E E E E
 
 ||-----0-0-----0---|----0-0-----0----||----0-0---------|
 ||-----7-7-----6-0-|----7-7-----6-0--||----7-7-------7-|
 ||o--------------5-|--------------5-o||----------------|
 ||-----------------|-----------------||----------------|
 ||o----------------|----------------o||----------------|
 ||--2------2-2-----|-2------2-2------||-2------2-2-2---|
 ||--0------0-0-----|-0------0-0------||-0------0-0-0---|

[+E] [+E] [+E] [+E] [+E] [+E] [+E] [+E]  
 
 |-----------------------------------------|

|-(7)b8r(7)-(7)b8r(7)-(7)b8r(7)-(7)b8r(7)-|
 
 |-----------------------------------------|
 |-----------------------------------------|
 |-----------------------------------------|
 |-----------------------------------------|
 |-----------------------------------------|

PM PM| PM PM|
Q E E E E E E Q E E E E E E 4x
 
 ||-----0-0-----0---|----0-0-----0----||
 ||-----7-7-----6-0-|----7-7-----6-0--||
 ||o--------------5-|--------------5-o||
 ||-----------------|-----------------||
 ||o----------------|----------------o||
 ||--2------2-2-----|-2------2-2------||
 ||--0------0-0-----|-0------0-0------||
 --------------------------------------------------------------------------------

Duration Legend
 
 ---------------
 W - whole; H - half; Q - quarter; E - 8th; S - 16th; T - 32nd; X - 64th; a - acciaccatura

+ - note tied to previous; . - note dotted; .. - note double dotted
Uncapitalized letters represent notes that are staccato (1/2 duration)
Irregular groupings are notated above the duration line
Duration letters will always appear directly above the note/fret number it represents the
duration for. Duration letters with no fret number below them represent rests. Multi-
bar rests are notated in the form Wxn, where n is the number of bars to rest for. Low
melody durations appear below the staff
Tablature Legend
 
 ----------------

h - hammer-on
p - pull-off
b - bend
pb - pre-bend
r - bend release (if no number after the r, then release immediately)
/\ - slide into or out of (from/to "nowhere")
s - legato slide
S - shift slide
- natural harmonic
[n] - artificial harmonic
n(n) - tapped harmonic
~ - vibrato
tr - trill
T - tap
TP - trem. picking
PM - palm muting
\n/ - tremolo bar dip; n = amount to dip
\n - tremolo bar down
n/ - tremolo bar up
/n\ - tremolo bar inverted dip
= - hold bend; also acts as connecting device for hammers/pulls
- volume swell (louder/softer)
x - on rhythm slash represents muted slash
o - on rhythm slash represents single note slash
Misc Legend
 
 -----------

| - bar
|| - double bar
||o - repeat start
o|| - repeat end
*| - double bar (ending)
: - bar (freetime)
$ - Segno
& - Coda
Tempo markers - = BPM(8/16=s8/s16), where s8 = swing 8ths, s16 = swing 16ths

Important: The song above is NOT stored on the Chordie server. The original song is hosted at www.guitartabs.cc. Chordie works as a search engine and provides on-the-fly formatting. Chordie does not index songs against artists'/composers' will. To remove this song please click here.

Text color:
Chord color:
Chord grids: 
Font size:    
Page size: 

B5 C#5 D5 E
Rate #1 of 5 versions

Login - add to songbook

SHARE PAGE  




You need to log in to post comments