Guitar Tabs, Chords and Lyrics
Major upgrade!! After one year development the new version of Chordie is now online! Please give feedback.


Blind   Korn

 
 [--5----] After u play this ten times Head plays this[---------] x1
 [--4----] [---------] x1 Oh yea when i type X1
 [--4------4-] [---------] It means one extra time
 [--3------3-] [---------] which means 2 :D
 [--2------2-] [---------] Gay ass smily ^^
 [-----------] [---------]
 [-----------] [-6-7-7-8-]
 [-----------] [-6-7-7-8-]

 


 


 Gtr1 Gtr2 Gtr1 Gtr2


 

 
 [--5------5-]x1 Then-->[-----------------] &[--5--] & [-----------------]
 [--4------4-] [-----------------] T[--4--] [-----------------]
 [--3------3-] [-----------------] h[--3--] [-----------------]
 [--2------2-] [-----------------] e[--2--] [-----------------]
 [-----------] [-----------------] n[-----] [-----------------]
 [-----------] [-----------------] [-----] [-----------------]
 [-----------] [-0-2-0-3-0-2-0-3-] [-----] [-0-2-0-3-0-2-0-3-]

 


 ^^^^^^^^^^^^^^^^^^^^^^^^^^^^^^^


 Repeat this part X4


 And Then He Goes:


 ARE YOU READY!


 Gtr1 This is also the chorus


 

 
 [-----------------------------------------------------------------------------------------]
 [-----------------------------------------------------------------------------------------]
 [-----------------------------------------------------------------------------------------]
 [-5-6-5-7-5-6-5-7-3-3-3-5-6-5-7-5-6-5-7-3-3-3-5-6-5-7-5-6-5-7-3-3-3-5-6-5-7-5-6-5-7-3-3-3-]
 [-6-7-6-8-6-7-6-8-4-4-4-6-7-6-8-6-7-6-8-4-4-4-6-7-6-8-6-7-6-8-4-4-4-6-7-6-8-6-7-6-8-4-4-4-]
 [-6-7-6-8-6-7-6-8-4-4-4-6-7-6-8-6-7-6-8-4-4-4-6-7-6-8-6-7-6-8-4-4-4-6-7-6-8-6-7-6-8-4-4-4-]
 [-4-5-4-6-4-5-4-6-2-2-2-4-5-4-6-4-5-4-6-2-2-2-4-5-4-6-4-5-4-6-2-2-2-4-5-4-6-4-5-4-6-2-2-2-]
 [0-2-0-3-0-2-0-3-6-6-6]


Important: The song above is NOT stored on the Chordie server. The original song is hosted at www.guitartabs.cc. Chordie works as a search engine and provides on-the-fly formatting. Chordie does not index songs against artists'/composers' will. To remove this song please click here.

This song is displayed as text-only. Transposing and tuning is only available for chordpro-songs.
Rate #1 of 6 versions

Jango Player

Login - add to songbook

SHARE PAGE  



You need to log in to post comments