Guitar Tabs, Chords and Lyrics
Major upgrade!! After one year development the new version of Chordie is now online! Please give feedback.


Counting  Korn

Gtr I (A D G C F A D) - 'Munky (Left)'
Gtr II (A D G C F A D) - 'Munky (Left)'
Gtr III (A D G C F A D) - 'Head (Right)'
Intro
Moderately Q=96
[C#D5] [C#D5] [C#D5] [C#D5] [C#D5] [C#D5] [C#D5] [C#D5] 
[4/4] Gtr I
PM PM PM PM
S e S S S S S S e S S S E S e S S S S S S e S S S E
 
 |---------------------------|---------------------------|
 |---------------------------|---------------------------|
 |---------------------------|---------------------------|
 |---------------------------|---------------------------|
 |-4S5---4s5-----4S5---4s5---|-4S5---4s5-----4S5---4s5---|
 |-4S5---4s5-----4S5---4s5---|-4S5---4s5-----4S5---4s5---|
 |-2S3-0-2s3-0-2-2S3-0-2s3-0-|-2S3-0-2s3-0-2-2S3-0-2s3-0-|

[C#D5] PM[C#D5] [C#D5] PM[C#D5] [C#D5] PM[C#D5] [C#D5]
S e S S S S S S e S S S E S e S S S S S S S Q.
 
 |---------------------------|------------------------|
 |---------------------------|------------------------|
 |---------------------------|------------------------|
 |---------------------------|------------------------|
 |-4S5---4s5-----4S5---4s5---|-4S5---4s5-----4S5------|
 |-4S5---4s5-----4S5---4s5---|-4S5---4s5-----4S5------|
 |-2S3-0-2s3-0-2-2S3-0-2s3-0-|-2S3-0-2s3-0-2-2S3------|

[C#D5]Gtrs I[C#D5]I, III[C#D5] [C#D5] [C#D5] [C#D5] [C#D5] [C#D5]
PM PM PM PM
S e S S S S S S e S S S E S e S S S S S S e S S S E
 
 ||----------------------------|----------------------------||
 ||----------------------------|----------------------------||
 ||o---------------------------|---------------------------o||
 ||----------------------------|----------------------------||
 ||o-4S5---4s5-----4S5---4s5---|-4S5---4s5-----4S5---4s5---o||
 ||--4S5---4s5-----4S5---4s5---|-4S5---4s5-----4S5---4s5----||
 ||--2S3-0-2s3-0-2-2S3-0-2s3-0-|-2S3-0-2s3-0-2-2S3-0-2s3-0--||

Verse
$
[C#D5] PM[C#D5] [C#D5] PM[C#D5] [C#D5] PM[C#D5] [C#D5] PM[C#D5]
S e S S S S S S e S S S E S e S S S S S S e S S S E 4x
 
 ||----------------------------|----------------------------||
 ||----------------------------|----------------------------||
 ||o---------------------------|---------------------------o||
 ||----------------------------|----------------------------||
 ||o-4S5---4s5-----4S5---4s5---|-4S5---4s5-----4S5---4s5---o||
 ||--4S5---4s5-----4S5---4s5---|-4S5---4s5-----4S5---4s5----||
 ||--2S3-0-2s3-0-2-2S3-0-2s3-0-|-2S3-0-2s3-0-2-2S3-0-2s3-0--||

Chorus
1.
N.C.
E. E. Q Q. E. E. E +H E. E. Q Q. E. E. E +H
 
 ||----------------|----------------|---------------|-----------------||
 ||-----0-----0----|----0-----------|----0-----0----|----0------------||
 ||o----3-----4----|----2-----------|----3-----4----|----2-----------o||
 ||-----4-----4----|----2-----------|----4-----4----|----2------------||
 ||o---------------|----------------|---------------|----------------o||
 ||--2-----3-------|-1--------------|-------3-------|-1---------------||
 ||----------------|-------0-(0)----|-2-------------|-------0-(0)-----||

2.
D.S.
>
W +W +W W W
 
 |----------|------------|------------|----------|------|
 |-0--------|-(0)--------|-(0)--------|----------|------|
 |-2--------|-(2)--------|-(2)--------|----------|------|
 |-2--------|-(2)--------|-(2)--------|----------|------|
 |----------|------------|------------|----------|------|
 |-1--------|-(1)--------|-(1)--------|----------|------|
 |----------|------------|------------|----------|------|

Bridge
1.,2.,3.,4.,5. 6.
[C#5]Gtr I[G#5]
E. E. E Q E E E. E. E Q E E 6x E. E. E H
 
 ||------11-----12--11---|-----8--------------||-----8----------|
 ||--------------------9-|-----------9--9-----||-----------9----|
 ||o---------------------|----------------8--o||----------------|
 ||--11------11----------|-10-----10----------||-10-----10------|
 ||o---------------------|-------------------o||----------------|
 ||----------------------|--------------------||----------------|
 ||----------------------|--------------------||----------------|

|
| Gtr III
| H. Q W 6x W
 
 ||----------------------|--------------------||----------------|
 ||----------------------|--------------------||----------------|
 ||o--6--------------6---|-------------------o||----------------|
 ||---6--------------6---|--6-----------------||--6-------------|
 ||o--4--------------4---|--6----------------o||--6-------------|
 ||----------------------|--4-----------------||--4-------------|
 ||----------------------|--------------------||----------------|

[C#D5] PM[C#D5] [C#D5] PM[C#D5] [C#D5] PM[C#D5] [C#D5] PM[C#D5]
S e S S S S S S e S S S E S e S S S S S S e S S S E
 
 |---------------------------|---------------------------|
 |---------------------------|---------------------------|
 |---------------------------|---------------------------|
 |---------------------------|---------------------------|
 |-4S5---4s5-----4S5---4s5---|-4S5---4s5-----4S5---4s5---|
 |-4S5---4s5-----4S5---4s5---|-4S5---4s5-----4S5---4s5---|
 |-2S3-0-2s3-0-2-2S3-0-2s3-0-|-2S3-0-2s3-0-2-2S3-0-2s3-0-|

[C#D5] PM[C#D5] [C#D5] PM[C#D5] [C#D5] PM[C#D5] [C#D5]
S e S S S S S S e S S S E S e S S S S S S S Q.
 
 |---------------------------|------------------------|
 |---------------------------|------------------------|
 |---------------------------|------------------------|
 |---------------------------|------------------------|
 |-4S5---4s5-----4S5---4s5---|-4S5---4s5-----4S5------|
 |-4S5---4s5-----4S5---4s5---|-4S5---4s5-----4S5------|
 |-2S3-0-2s3-0-2-2S3-0-2s3-0-|-2S3-0-2s3-0-2-2S3------|

[C#D5]Gtrs I[C#D5]I, III[C#D5] [C#D5] [C#D5] [C#D5] [C#D5] [C#D5]
PM PM PM PM
S e S S S S S S e S S S E S e S S S S S S e S S S E
 
 ||----------------------------|----------------------------||
 ||----------------------------|----------------------------||
 ||o---------------------------|---------------------------o||
 ||----------------------------|----------------------------||
 ||o-4S5---4s5-----4S5---4s5---|-4S5---4s5-----4S5---4s5---o||
 ||--4S5---4s5-----4S5---4s5---|-4S5---4s5-----4S5---4s5----||
 ||--2S3-0-2s3-0-2-2S3-0-2s3-0-|-2S3-0-2s3-0-2-2S3-0-2s3-0--||

Chorus
N.C.
E. E. Q Q. E. E. E +H E. E. Q Q. E. E. E +H
 
 ||----------------|----------------|---------------|----------------|
 ||-----0-----0----|----0-----------|----0-----0----|----0-----------|
 ||o----3-----4----|----2-----------|----3-----4----|----2-----------|
 ||-----4-----4----|----2-----------|----4-----4----|----2-----------|
 ||o---------------|----------------|---------------|----------------|
 ||--2-----3-------|-1--------------|-------3-------|-1--------------|
 ||----------------|-------0-(0)----|-2-------------|-------0-(0)----|

E. E. Q Q. E. E. E +H E. E. Q Q. W
 
 |---------------|----------------|---------------|-------||
 |----0-----0----|----0-----------|----0-----0----|-0-----||
 |----3-----4----|----2-----------|----3-----4----|-2----o||
 |----4-----4----|----2-----------|----4-----4----|-2-----||
 |---------------|----------------|---------------|------o||
 |-2-----3-------|-1--------------|-------3-------|-1-----||
 |---------------|-------0-(0)----|-2-------------|-------||

>
+W +W +W
 
 |------------|------------|--------*|
 |-(0)--------|-(0)--------|-(0)----*|
 |-(2)--------|-(2)--------|-(2)----*|
 |-(2)--------|-(2)--------|-(2)----*|
 |------------|------------|--------*|
 |-(1)--------|-(1)--------|-(1)----*|
 |------------|------------|--------*|
 --------------------------------------------------------------------------------

Duration Legend
 
 ---------------
 W - whole; H - half; Q - quarter; E - 8th; S - 16th; T - 32nd; X - 64th; a - acciaccatura

+ - note tied to previous; . - note dotted; .. - note double dotted
Uncapitalized letters represent notes that are staccato (1/2 duration)
Irregular groupings are notated above the duration line
Duration letters will always appear directly above the note/fret number it represents the
duration for. Duration letters with no fret number below them represent rests. Multi-
bar rests are notated in the form Wxn, where n is the number of bars to rest for. Low
melody durations appear below the staff
Tablature Legend
 
 ----------------

h - hammer-on
p - pull-off
b - bend
pb - pre-bend
r - bend release (if no number after the r, then release immediately)
/\ - slide into or out of (from/to "nowhere")
s - legato slide
S - shift slide
- natural harmonic
(n) - artificial harmonic
n(n) - tapped harmonic
~ - vibrato
tr - trill
T - tap
TP - trem. picking
PM - palm muting
\n/ - tremolo bar dip; n = amount to dip
\n - tremolo bar down
n/ - tremolo bar up
/n\ - tremolo bar inverted dip
= - hold bend; also acts as connecting device for hammers/pulls
- volume swell (louder/softer)
x - on rhythm slash represents muted slash
o - on rhythm slash represents single note slash
Misc Legend
 
 -----------

| - bar
|| - double bar
||o - repeat start
o|| - repeat end
*| - double bar (ending)
: - bar (freetime)
$ - Segno
& - Coda
Tempo markers - = BPM(8/16=s8/s16), where s8 = swing 8ths, s16 = swing 16ths

Important: The song above is NOT stored on the Chordie server. The original song is hosted at www.guitartabs.cc. Chordie works as a search engine and provides on-the-fly formatting. Chordie does not index songs against artists'/composers' will. To remove this song please click here.

Text color:
Chord color:
Chord grids: 
Font size:    
Page size: 

C#5 G#5
Rate #0 of 1 versions

Jango Player

Login - add to songbook

SHARE PAGE  



You need to log in to post comments