Guitar Tabs, Chords and Lyrics
Major upgrade!! After one year development the new version of Chordie is now online! Please give feedback.


Evolution   Korn

 
 D |---------------------------------------------------------|
 A |-15-13-10-11-15-13----10---------------------------------|
 F |---------------------------------------------------------|
 C |---------------------------------------------------------|
 G |---------------------------------------------------------|
 C |---------------------------------------------------------|

 


 


 (guitar)


 PM - - -


 

 
 D |---------------------------------------------------------|
 A |---------------------------------------------------------|
 F |---------------------------------------------------------|
 C |-2x--2x--3x----------------------------------------------|
 G |-2x--2x--3x----------------------------------------------|
 C |-2x--2x--3x----------------------------------------------|

 


 


 Pre-Chorus:


 

 
 PM - - - - - - - - - - - - - - - - - - - - -
 D |---------------------------------------------------------|
 A |---------------------------------------------------------|
 F |---------------------------------------------------------|
 C |-3-2-2---2-2---2-2-2---2-2-2---3-3-3---3-3---3-3-3---3-3-|
 G |-3-2-2---2-2---2-2-2---2-2-2---3-3-3---3-3---3-3-3---3-3-|
 C |-3-2-2---2-2---2-2-2---2-2-2---3-3-3---3-3---3-3-3---3-3-|

 


 


 Fill:1


 

 
 PM --- --- -- --- --- -- - -- - -- -- --- --- --
 D |---------------------------------------------------------|
 A |---------------------------------------------------------|
 F |---------------------------------------------------------|
 C |---7---7-------7---7--------9----7-------7---7-----------|
 G |--9---9---9---9---9---9---10---10---8---7---7---7--------|
 C |-8---8---8---7---7---7---8----8----6---5---5---5---------|

 


 


 Chorus: (guitar 1)


 

 
 D |---| --------| ---| -------| ---| ---| ----------
 A |---| --------| ---| -------| ---| ---| ----------
 F |---| --------| ---| -------| ---| ---| ----------
 C |-2-| X8--0-2-0-| -5-| X8-0-2-0-| -7-| X8-2-| X8-0-2-0----
 G |-2-| --0-2-0-| -5-| -0-2-0-| -7-| -2-| -0-2-0----
 C |-2-| --0-2-0-| -5-| -0-2-0-| -7-| -2-| -0-2-0----

 


 


 (Guitar 2)


 

 
 D |---------------------------------------------------------|
 A |---------------------------------------------------------|
 F |---------------------------------------------------------|
 C |-2-4-5--2-4-5--2-5---0-2-0-------------------------------|
 G |---------------------0-2-0-------------------------------|
 C |---------------------0-2-0-------------------------------|

 


 


 (synth) ()


 

 
 D |----| ---| ---| -----------------------------------|
 A |-12-| -9-| -7-| -----------------------------------|
 F |-x--| -x-| -x-| -----------------------------------|
 C |-9--| X8-7-| X8-5-| X8-----------------------------------|
 G |----| ---| ---| -----------------------------------|
 C |----| ---| ---| -----------------------------------|

 


 


 Fill:2


 ( Tab from: http://www.guitartabs.cc/tabs/k/korn/evolution_tab_ver_3.html )


 

 
 D |---------------------------------------------------------|
 A |-15---13---10---11----8-\\\\\\- -----|
 F |------------------------------- back to beginning -----|
 C |------------------------------- jump to [2] @ [] -----|
 G |------------------------------- -----|
 C |---------------------------------------------------------|

 


 


 Br[(2)]idge:1


 

 
 D |-----------------------------| ----| --- ---| ----| ---
 A |-----------------------------| ----| --- ---| -12-| ---
 F |-9-9-9-10-8--x-x-x-x-x-x-x-x-| -14-| -10 -x-| -x--| -10
 C |-x-x-x-x--x--x-x-x-x-x-x-x-x-|X2-x--|X4-x- -x-|X8-9--|x4-x-
 G |-7-7-7-8--6--x-x-x-x-x-x-x-x-| -12-| -8- -x-| ----| -8-
 C |-----------------------------| ----| --- ---| ----| ---

 


 


 Bridge:2


 

 
 PM- - - - - - - - - - - - - - - - - - - - - - - -
 D |---------------------------------------------------------|
 A |---------------------------------------------------------|
 F |---------------------------------------------------------|
 C |---------------------------------------------------------|
 G |---------------------------------------------------------|
 C |-1/2-2--1/4-4--1/2-2--1/4-4--5\4-4--5\1-1--5\4-4--5\1-1--|

 


 


 Bridge:3


 

 
 PM- - - - - - - - - - - - - - - - - - - -
 D |-------------------| -----------------------| ---------|
 A |-------------------| -----------------------| ---------|
 F |-------------------| -----------------------| ---------|
 C |-------------------|X2-----------------------|X2---------|
 G |-------------------| -----------------------| ---------|
 C |-1/2-2\1/4-4-4-2-4-| -5\4-4/5\2-2-2-2-2-1-1-| ---------|

 


 


 Bridge:4


 

 
 D |-------------------| ---------------------| -----------|
 A |-------------------| ---------------------| -----------|
 F |-------------------| ---------------------| -----------|
 C |-0/1-1\0/3-3-3-1-3-|X2-4\3-3/4\1-1-1-1-0-0-|X2-----------|
 G |-0/1-1\0/3-3-3-1-3-| -4\3-3/4\1-1-1-1-0-0-| -----------|
 C |-0/1-1\0/3-3-3-1-3-| -4\3-3/4\1-1-1-1-0-0-| -----------|

 


 


 Chorus: (guitar 1)


 

 
 D |---| --------| ---| -------| ---| ---| ----------
 A |---| --------| ---| -------| ---| ---| ----------
 F |---| --------| ---| -------| ---| ---| ----------
 C |-2-| X8--0-2-0-| -5-| X8-0-2-0-| -7-| X8-2-| X8-0-2-0----
 G |-2-| --0-2-0-| -5-| -0-2-0-| -7-| -2-| -0-2-0----
 C |-2-| --0-2-0-| -5-| -0-2-0-| -7-| -2-| -0-2-0----

 


 


 (Guitar 2)


 

 
 D |---------------------------------------------------------|
 A |---------------------------------------------------------|
 F |---------------------------------------------------------|
 C |-2-4-5--2-4-5--2-5---0-2-0-------------------------------|
 G |---------------------0-2-0-------------------------------|
 C |---------------------0-2-0-------------------------------|

 


 


 (synth)


 

 
 D |----| ---| ---| -----------------------------------|
 A |-12-| -9-| -7-| -----------------------------------|
 F |-x--| -x-| -x-| -----------------------------------|
 C |-9--| X8-7-| X8-5-| X8-----------------------------------|
 G |----| ---| ---| -----------------------------------|
 C |----| ---| ---| -----------------------------------|


Important: The song above is NOT stored on the Chordie server. The original song is hosted at www.guitartabs.cc. Chordie works as a search engine and provides on-the-fly formatting. Chordie does not index songs against artists'/composers' will. To remove this song please click here.

This song is displayed as text-only. Transposing and tuning is only available for chordpro-songs.
Rate #1 of 3 versions

Jango Player

Login - add to songbook

SHARE PAGE  




You need to log in to post comments