Guitar Tabs, Chords and Lyrics
Major upgrade!! After one year development the new version of Chordie is now online! Please give feedback.


Faget   Korn

 
 ||--------------------------------------|
 ||--------------------------------------|
 ||o-------------------------------------|
 ||--------------------------10-10-10-10-|
 ||o--------------------------9--9--9--9-|
 ||----------7----------------8--8--8--8-|
 ||--0-0-0-0-0---0-0---0-0-0-------------|

 


 


 N.C. Db5


 S S S S S S S S S S S S S S S S


 

 
 |--------------------------------------||
 |--------------------------------------||
 |-------------------------------------o||
 |-------------------------10-10-10-10--||
 |--------------------------9--9--9--9-o||
 |---------7----------------8--8--8--8--||
 |-0-0-0-0-0---0-0---0-0-0--------------||

 


 


 N.C. Db5 N.C. Db5


 S S S S S S S S S S S S S S S S S S S S S S S S S S S S S S S S


 

 
 |-------------------------------------|-------------------------------------|
 |-------------------------------------|-------------------------------------|
 |-------------------------------------|-------------------------------------|
 |-------------------------10-10-10-10-|-------------------------10-10-10-10-|
 |--------------------------9--9--9--9-|--------------------------9--9--9--9-|
 |---------7----------------8--8--8--8-|---------7----------------8--8--8--8-|
 |-0---0-0-0---0-0---0-0-0-------------|-0---0-0-0---0-0---0-0-0-------------|

 


 


 N.C. Db5 N.C. Gb5


 

 
 PM--------|

 


 S S S S S S S S S S S S S S S S S S S S S S S S S S S S S S E


 

 
 |-------------------------------------|--------------------------------||
 |-------------------------------------|--------------------------------||
 |-------------------------------------|--------------------------------||
 |-------------------------10-10-10-10-|--------------------------------||
 |--------------------------9--9--9--9-|--------------------------------||
 |---------7----------------8--8--8--8-|---------7---------7-8---7---9--||
 |-0---0-0-0---0-0---0-0-0-------------|-0---0-0-0---0-0-------9---7-8--||

 


 


 Pre-chorus


 N.C. Db5 N.C. Gb5


 Gtrs I, II


 

 
 PM--------|

 


 E S S S S S S S S S S S S S S E S S S S S S S S S S S S E 4x


 

 
 ||------------------------------------|------------------------------||
 ||------------------------------------|------------------------------||
 ||o-----------------------------------|-----------------------------o||
 ||------------------------10-10-10-10-|------------------------------||
 ||o------------------------9--9--9--9-|-----------------------------o||
 ||--------7----------------8--8--8--8-|-------7---------7-8---7---9--||
 ||--0-0-0-0---0-0---0-0-0-------------|-0-0-0-0---0-0-------9---7-8--||

 


 


 1st and 2nd Verses


 $


 N.C.


 Gtr II


 Q. H +E W


 

 
 |---------------------------------------|----------------------------------|
 |---------------------------------------|----------------------------------|
 |---------------------------------------|----------------------------------|
 |-22------------20---------------(20)s==|=13-------------------------------|
 |---------------------------------------|----------------------------------|
 |---------------------------------------|----------------------------------|
 |---------------------------------------|----------------------------------|

 


 |


 | Gtr I


 

 
 | PM PM--| PM| PM-----------------| PM--| PM| PM----------|

 


 | S S S S S S S S S S S S S S S S S S S S S S S S S S S S S S S S


 

 
 |---------------------------------------|----------------------------------|
 |---------------------------------------|----------------------------------|
 |---------------------------------------|----------------------------------|
 |---------------------------------------|----------------------------------|
 |---------------------------------------|----------------------------------|
 |-----------7----------------8-8---8--8-|----------7---------------8-8-8-8-|
 |--0----0-0-0----0-0---0-0-0------------|--0---0-0-0---0-0---0-0-0---------|

 


 


 Q. E +H


 

 
 |---------------------------------------|
 |---------------12---(12)---------------|
 |---------------------------------------|
 |-12------------------------------------|
 |---------------------------------------|
 |---------------------------------------|
 |---------------------------------------|

 


 |


 

 
 | PM PM--| PM| PM-------------

 


 | S S S S S S S S S S S S S S S S


 

 
 |---------------------------------------|
 |---------------------------------------|
 |---------------------------------------|
 |---------------------------------------|
 |---------------------------------------|
 |-----------7-------------------8-8-8-8-|
 |--0----0-0-0----0-0------0-0-0---------|

 


 


 Q. E +H


 

 
 |---------------------------------------|
 |---------------------------------------|
 |---------------10---(10)---------------|
 |-\9------------------------------------|
 |---------------------------------------|
 |---------------------------------------|
 |---------------------------------------|

 


 |


 

 
 |-| PM--| PM| PM----------|

 


 | S S S S S S S S S S S S S S S S


 

 
 |---------------------------------------|
 |---------------------------------------|
 |---------------------------------------|
 |---------------------------------------|
 |---------------------------------------|
 |-----------7-------------------8-8-8-8-|
 |--0----0-0-0----0-0------0-0-0---------|

 


 


 Q. H +E W


 

 
 |---------------------------------------|----------------------------------|
 |---------------------------------------|----------------------------------|
 |---------------------------------------|----------------------------------|
 |-22------------20---------------(20)s==|=13-------------------------------|
 |---------------------------------------|----------------------------------|
 |---------------------------------------|----------------------------------|
 |---------------------------------------|----------------------------------|

 


 |


 

 
 | PM PM--| PM| PM-----------------| PM--| PM| PM----------|

 


 | S S S S S S S S S S S S S S S S S S S S S S S S S S S S S S S S


 

 
 |---------------------------------------|----------------------------------|
 |---------------------------------------|----------------------------------|
 |---------------------------------------|----------------------------------|
 |---------------------------------------|----------------------------------|
 |---------------------------------------|----------------------------------|
 |-----------7----------------8-8---8--8-|----------7---------------8-8-8-8-|
 |--0----0-0-0----0-0---0-0-0------------|--0---0-0-0---0-0---0-0-0---------|

 


 


 Q. H +E E Q Q E Q


 

 
 |---------------------------------------|----------------------0------------||
 |---------------12---------------(12)---|--------------0--------------------||
 |---------------------------------------|-----10----------------------------||
 |-12------------------------------------|-9------------------------11-------||
 |---------------------------------------|-----------------------------------||
 |---------------------------------------|-----------------------------------||
 |---------------------------------------|-----------------------------------||

 


 |


 

 
 | PM PM--| PM| PM-----------------| PM--| PM| PM-----------|

 


 | S S S S S S S S S S S S S S S S S S S S S S S S S S S S S S S S


 

 
 |---------------------------------------|-----------------------------------||
 |---------------------------------------|-----------------------------------||
 |---------------------------------------|-----------------------------------||
 |---------------------------------------|-----------------------------------||
 |---------------------------------------|-----------------------------------||
 |-----------7----------------8-8---8--8-|----------7----------------8-8-8-8-||
 |--0----0-0-0----0-0---0-0-0------------|-0----0-0-0---0-0---0-0-0----------||


Important: The song above is NOT stored on the Chordie server. The original song is hosted at www.guitartabs.cc. Chordie works as a search engine and provides on-the-fly formatting. Chordie does not index songs against artists'/composers' will. To remove this song please click here.

This song is displayed as text-only. Transposing and tuning is only available for chordpro-songs.
Rate #1 of 4 versions

Jango Player

Login - add to songbook

SHARE PAGE  




You need to log in to post comments