Guitar Tabs, Chords and Lyrics
Server problems seems to be fixed. Chordie has been experiencing problems with songs disappearing. These issues now seems to be fixed, but still verifying the fix. If you find anything strange, please email admin@chordie.com.


Hating  Korn

Gtr I (A D G C F A D) - 'Munky (W/Filter)'
Gtr II (A D G C F A D) - 'Head (Whammy Up an Octave)'
Gtr III (A D G C F A D) - 'Head (w/out Whammy)'
Gtr IV (A D G C F A D) - 'Munky'
Intro
Moderately Slow Rock Q=70
[Em] [Bm] [Em] 
[4/4] Gtr I
 
 PM--------------------------------------------------------------|

S S S S S S S S S S S S S S S S S S S S S S S S S S S S S S S S 4x
 
 ||----------------------------------|----------------------------------||
 ||----------------------------------|----------------------------------||
 ||o---------------2-----------------|---------------2-----------------o||
 ||--2-2-4-4-0-0-0-------5-5-4-4-----|-2-2-4-4-0-0-0-------5-5-4-4-4----||
 ||o-----------------2-2---------2-2-|-----------------2-2-----------2-o||
 ||----------------------------------|----------------------------------||
 ||----------------------------------|----------------------------------||

Verse
$
[Em] [Bm]  
 
 PM--------------------------------------

S S S S S S S S S S S S S S S S
 
 ||-------------------------------------------|
 ||-------------------------------------------|
 ||o---------------------2--------------------|
 ||----2-2-4-4---0--0-0-----------5-5-4-4-----|
 ||o-------------------------2--2---------2-2-|
 ||-------------------------------------------|
 ||-------------------------------------------|

|
| Gtr II
| Q +E. S +Q Q
 
 ||-------------------------------------------|
 ||--/12-------(12)-----10-(10)---------------|
 ||o------------------------------------------|
 ||----9--------(9)------7--(7)---------------|
 ||o------------------------------------------|
 ||-------------------------------------------|
 ||-------------------------------------------|

[Em]  
 
 ----------------------------------------|

S S S S S S S S S S S S S S S S 4x
 
 |--------------------------------------------||
 |--------------------------------------------||
 |--------------------2----------------------o||
 |---2-2-4-4---0--0-0---------5-5--4--4-4-----||
 |-----------------------2--2-------------2--o||
 |--------------------------------------------||
 |--------------------------------------------||

|
| Q +E. S +E. S +E E 4x
 
 |--------------------------------------------||
 |-/10-------(10)-----8-(8)-----7-(7)---------||
 |-------------------------------------------o||
 |--/7--------(7)-----5-(5)-----4-(4)---------||
 |-------------------------------------------o||
 |--------------------------------------------||
 |--------------------------------------------||

Pre-Chorus
1.,2.,3.
[B]Gtr IV[C] [A]
H H W 4x
 
 ||---------------------------------|--------------------------------||
 ||---------------------------------|--------------------------------||
 ||o-8---------------9--------------|-6-----------------------------o||
 ||--9--------------10--------------|-7------------------------------||
 ||o-9--------------10--------------|-7-----------------------------o||
 ||--7---------------8--------------|-5------------------------------||
 ||---------------------------------|--------------------------------||

|
| Gtr III
 
 | |-3-| |-3-| |-3-| |-3-| |-3-| |-3-| |-3-| |-3-|

| Q S S S S S S Q S S S S S S Q S S S S S S Q S S S S S S 4x
 
 ||-----7-7-7-7-7-7-----7-7-7-7-7-7-|----7-7-7-7-7-7----7-7-7-7-7-7--||
 ||---------------------------------|--------------------------------||
 ||o--------------------------------|-------------------------------o||
 ||---------------------------------|--------------------------------||
 ||o--------------------------------|-------------------------------o||
 ||---------------------------------|--------------------------------||
 ||---------------------------------|--------------------------------||

4.
[D]  
[B] [E] [E] [E] [E]  
 
 |----------------------------------------||
 |----------------------------------------||
 |-11--------------11----11---------------||
 |-12-----------------12--------12--------||
 |-12-------------------------------------||
 |-10-------------------------------------||
 |----------------------------------------||

|
 
 | |-3-| |-3-| |-3-| |-3-|

| Q S S S S S S Q S S S S S S
 
 |-----7-7-7-7-7-7--------7-7-7--7-7-7----||
 |----------------------------------------||
 |----------------------------------------||
 |----------------------------------------||
 |----------------------------------------||
 |----------------------------------------||
 |----------------------------------------||

Chorus
[E5]H [C5]H [G5]H [D5]Q. [D#5]E
 
 |-------------------|--------------------|
 |-------------------|--------------------|
 |-------------------|--------------------|
 |-------------------|-5------------------|
 |-7-------3---------|-5-------5--------6-|
 |-7-------3---------|-3-------5--------6-|
 |-5-------1---------|---------3--------4-|

|
| E E Q E E E E E E Q E E Q
 
 |-------------------|--------------------|
 |-------------------|--------------------|
 |-9-11-7----12-11---|-9-11-7-----12-11---|
 |---------9-------9-|---------9----------|
 |-7--9-5----10--9---|-7--9-5-----10--9---|
 |---------7-------7-|---------7----------|
 |-------------------|--------------------|

[E5] [C5] [B5] [D#5]  
[B] [B] [B] [B]  
 
 |-------------------|--------------------|
 |-------------------|--------------------|
 |-------------------|--------------------|
 |-------------------|--------------------|
 |-7-------3---------|-2-------6----------|
 |-7-------3---------|-2-------6----------|
 |-5-------1---------|-0-------4----------|

|
| E E Q E E E E E E Q E E E E
 
 |-------------------|--------------------|
 |-------------------|--------------------|
 |-9-11-7----12-11---|-9-11-7----12-11-14-|
 |---------9-------9-|---------9----------|
 |-7--9-5----10--9---|-7--9-5----10--9-12-|
 |---------7-------7-|---------7----------|
 |-------------------|--------------------|

[E5]H [C5]H [G5]H [D5]Q. [D#5]E
 
 |-------------------|--------------------|
 |-------------------|--------------------|
 |-------------------|--------------------|
 |-------------------|-5------------------|
 |-7-------3---------|-5-------5--------6-|
 |-7-------3---------|-3-------5--------6-|
 |-5-------1---------|---------3--------4-|

|
| E E Q E E E E E E Q E E Q
 
 |-------------------|--------------------|
 |-------------------|--------------------|
 |-9-11-7----12-11---|-9-11-7-----12-11---|
 |---------9-------9-|---------9----------|
 |-7--9-5----10--9---|-7--9-5-----10--9---|
 |---------7-------7-|---------7----------|
 |-------------------|--------------------|

To Coda
[E5] [C5] [B5] [D#5]  
[B] [B] [B] [B]  
 
 |-------------------|----------------------|
 |-------------------|----------------------|
 |-------------------|----------------------|
 |-------------------|----------------------|
 |-7-------3---------|-2-------6------------|
 |-7-------3---------|-2-------6------------|
 |-5-------1---------|-0-------4------------|

|
| E E Q E E E E E E Q E E S S E
 
 |-------------------|----------------------|
 |-------------------|----------------------|
 |-9-11-7----12-11---|-9-11-7----12-11s9-11-|
 |---------9-------9-|---------9------------|
 |-7--9-5----10--9---|-7--9-5----10--9s7--9-|
 |---------7-------7-|---------7------------|
 |-------------------|----------------------|

D.S. al Coda &
[Em]Gtr I [Bm] G[E5]tr IV
 
 |-3-| |-3-| |-3-| |-3-|

S S S S S S S S S S S S S S S S Q S S S S S S Q S S S S S S
 
 |---------------------------------|---------------------------------|
 |---------------------------------|---------------------------------|
 |---------------2-----------------|---------------------------------|
 |-2-2-4-4-0-0-0-------5-5-4-4-----|---------------------------------|
 |-----------------2-2---------2-2-|---------------------------------|
 |---------------------------------|-----7-7-7-7-7-7----7-7-7-7-7-7--|
 |---------------------------------|-----5-5-5-5-5-5----5-5-5-5-5-5--|

[F5]  
 
 |-3-| |-3-| |-3-| |-3-|

Q S S S S S S Q S S S S S S
 
 |-------------------------------|
 |-------------------------------|
 |-------------------------------|
 |-------------------------------|
 |-------------------------------|
 |----7-7-7-7-7-7----7-8-8-8-8-8-|
 |----5-5-5-5-5-5----5-6-6-6-6-6-|

[E5] [F5]  
 
 |-3-| |-3-| |-3-| |-3-| |-3-| |-3-| |-3-| |-3-|

Q S S S S S S Q S S S S S S Q S S S S S S Q S S S S S S
 
 |-------------------------------|-------------------------------|
 |-------------------------------|-------------------------------|
 |-------------------------------|-------------------------------|
 |-------------------------------|-------------------------------|
 |-------------------------------|-------------------------------|
 |----7-7-7-7-7-7----7-7-7-7-7-7-|----7-7-7-7-7-7----7-8-8-8-8-8-|
 |----5-5-5-5-5-5----5-5-5-5-5-5-|----5-5-5-5-5-5----5-6-6-6-6-6-|

Bridge
[E5]Q Q [F5]Q Q [G#5] Q Q [G5] E [D#D5]E E E [E5]Q Q [F5]Q Q [G#5] Q Q [G5] E [D#D5]E E E
 
 ||--------------|-----------------|-------------|-------------------||
 ||--------------|-----------------|-------------|-------------------||
 ||o----0-----0--|-----0---------0-|----0-----0--|-----0---------0--o||
 ||--------------|-----------------|-------------|-------------------||
 ||o-------------|-----------------|-------------|------------------o||
 ||--7-----8-----|-11-----10-6-5---|-7-----8-----|-11-----10-6-5-----||
 ||--5-----6-----|--9------8-4-3---|-5-----6-----|--9------8-4-3-----||

Pre-Chorus
[B]Gtr IV[C] [A]
H H W 3x
 
 ||---------------------------------|---------------------------------||
 ||---------------------------------|---------------------------------||
 ||o-8---------------9--------------|-6------------------------------o||
 ||--9--------------10--------------|-7-------------------------------||
 ||o-9--------------10--------------|-7------------------------------o||
 ||--7---------------8--------------|-5-------------------------------||
 ||---------------------------------|---------------------------------||

|
| Gtr III
 
 | |-3-| |-3-| |-3-| |-3-| |-3-| |-3-| |-3-| |-3-|

| Q S S S S S S Q S S S S S S Q S S S S S S Q S S S S S S 3x
 
 ||-----7-7-7-7-7-7-----7-7-7-7-7-7-|----7-7-7-7-7-7----7-7-7-7-7-7---||
 ||---------------------------------|---------------------------------||
 ||o--------------------------------|--------------------------------o||
 ||---------------------------------|---------------------------------||
 ||o--------------------------------|--------------------------------o||
 ||---------------------------------|---------------------------------||
 ||---------------------------------|---------------------------------||

[B] [C]  
[B] [B]  
 
 |--------------------------------|
 |--------------------------------|
 |-8---------------9--------------|
 |-9--------------10--------------|
 |-9--------------10--------------|
 |-7---------------8--------------|
 |--------------------------------|

|
 
 | |-3-| |-3-| |-3-| |-3-|

| Q S S S S S S Q S S S S S S
 
 |----7-7-7-7-7-7-----7-7-7-7-7-7-|
 |--------------------------------|
 |--------------------------------|
 |--------------------------------|
 |--------------------------------|
 |--------------------------------|
 |--------------------------------|

[D] [B] [C] [A]\7
H E E E E H H W
 
 |-------------------------------------|-----------|-------|
 |-------------------------------------|-4----5----|-2-----|
 |-11--------------11----11------------|-4----5----|-2-----|
 |-12-----------------12--------12-----|-4----5----|-2-----|
 |-12----------------------------------|-----------|-------|
 |-10----------------------------------|-----------|-------|
 |-------------------------------------|-----------|-------|

|
 
 | |-3-| |-3-| |-3-| |-3-|

| Q S S S S S S Q S S S S S S W W
 
 |-----7-7-7-7-7-7--------7-7-7--7-7-7-|-----------|-------|
 |-------------------------------------|-----------|-------|
 |-------------------------------------|-----------|-------|
 |-------------------------------------|-----------|-------|
 |-------------------------------------|-----------|-------|
 |-------------------------------------|-----------|-------|
 |-------------------------------------|-----------|-------|

Out-Chorus
[E5]H [C5]H [G5]H [D5]Q. [D#5]E
 
 |-------------------|--------------------|
 |-------------------|--------------------|
 |-------------------|--------------------|
 |-------------------|-5------------------|
 |-7-------3---------|-5-------5--------6-|
 |-7-------3---------|-3-------5--------6-|
 |-5-------1---------|---------3--------4-|

|
| E E Q E E E E E E Q E E Q
 
 |-------------------|--------------------|
 |-------------------|--------------------|
 |-9-11-7----12-11---|-9-11-7-----12-11---|
 |---------9-------9-|---------9----------|
 |-7--9-5----10--9---|-7--9-5-----10--9---|
 |---------7-------7-|---------7----------|
 |-------------------|--------------------|

[E5] [C5] [B5] [D#5]  
[B] [B] [B] [B]  
 
 |-------------------|--------------------|
 |-------------------|--------------------|
 |-------------------|--------------------|
 |-------------------|--------------------|
 |-7-------3---------|-2-------6----------|
 |-7-------3---------|-2-------6----------|
 |-5-------1---------|-0-------4----------|

|
| E E Q E E E E E E Q E E E E
 
 |-------------------|--------------------|
 |-------------------|--------------------|
 |-9-11-7----12-11---|-9-11-7----12-11-14-|
 |---------9-------9-|---------9----------|
 |-7--9-5----10--9---|-7--9-5----10--9-12-|
 |---------7-------7-|---------7----------|
 |-------------------|--------------------|

[E5]H [C5]H [G5]H [D5]Q. [D#5]E
 
 |-------------------|--------------------|
 |-------------------|--------------------|
 |-------------------|--------------------|
 |-------------------|-5------------------|
 |-7-------3---------|-5-------5--------6-|
 |-7-------3---------|-3-------5--------6-|
 |-5-------1---------|---------3--------4-|

|
| E E Q E E E E E E Q E E Q
 
 |-------------------|--------------------|
 |-------------------|--------------------|
 |-9-11-7----12-11---|-9-11-7-----12-11---|
 |---------9-------9-|---------9----------|
 |-7--9-5----10--9---|-7--9-5-----10--9---|
 |---------7-------7-|---------7----------|
 |-------------------|--------------------|

[E5] [C5] [B5] [D#5]  
[B] [B] [B] [B]  
 
 |-------------------|----------------------|
 |-------------------|----------------------|
 |-------------------|----------------------|
 |-------------------|----------------------|
 |-7-------3---------|-2-------6------------|
 |-7-------3---------|-2-------6------------|
 |-5-------1---------|-0-------4------------|

|
| E E Q E E E E E E Q E E S S E
 
 |-------------------|----------------------|
 |-------------------|----------------------|
 |-9-11-7----12-11---|-9-11-7----12-11s9-11-|
 |---------9-------9-|---------9------------|
 |-7--9-5----10--9---|-7--9-5----10--9s7--9-|
 |---------7-------7-|---------7------------|
 |-------------------|----------------------|

Outro
[E5]Gtrs III, IV[F5]
 
 |-3-| |-3-| |-3-| |-3-| |-3-| |-3-| |-3-| |-3-|

Q S S S S S S Q S S S S S S Q S S S S S S Q S S S S S S
 
 ||--------------------------------|---------------------------------||
 ||--------------------------------|---------------------------------||
 ||o-------------------------------|--------------------------------o||
 ||--------------------------------|---------------------------------||
 ||o-------------------------------|--------------------------------o||
 ||-----7-7-7-7-7-7----7-7-7-7-7-7-|----7-7-7-7-7-7----7-8-8-8-8-8---||
 ||-----5-5-5-5-5-5----5-5-5-5-5-5-|----5-5-5-5-5-5----5-6-6-6-6-6---||
 --------------------------------------------------------------------------------

Duration Legend
 
 ---------------
 W - whole; H - half; Q - quarter; E - 8th; S - 16th; T - 32nd; X - 64th; a - acciaccatura

+ - note tied to previous; . - note dotted; .. - note double dotted
Uncapitalized letters represent notes that are staccato (1/2 duration)
Irregular groupings are notated above the duration line
Duration letters will always appear directly above the note/fret number it represents the
duration for. Duration letters with no fret number below them represent rests. Multi-
bar rests are notated in the form Wxn, where n is the number of bars to rest for. Low
melody durations appear below the staff
Tablature Legend
 
 ----------------

h - hammer-on
p - pull-off
b - bend
pb - pre-bend
r - bend release (if no number after the r, then release immediately)
/\ - slide into or out of (from/to "nowhere")
s - legato slide
S - shift slide
- natural harmonic
(n) - artificial harmonic
n(n) - tapped harmonic
~ - vibrato
tr - trill
T - tap
TP - trem. picking
PM - palm muting
\n/ - tremolo bar dip; n = amount to dip
\n - tremolo bar down
n/ - tremolo bar up
/n\ - tremolo bar inverted dip
= - hold bend; also acts as connecting device for hammers/pulls
- volume swell (louder/softer)
x - on rhythm slash represents muted slash
o - on rhythm slash represents single note slash
Misc Legend
 
 -----------

| - bar
|| - double bar
||o - repeat start
o|| - repeat end
*| - double bar (ending)
: - bar (freetime)
$ - Segno
& - Coda
Tempo markers - = BPM(8/16=s8/s16), where s8 = swing 8ths, s16 = swing 16ths

Important: The song above is NOT stored on the Chordie server. The original song is hosted at www.guitartabs.cc. Chordie works as a search engine and provides on-the-fly formatting. Chordie does not index songs against artists'/composers' will. To remove this song please click here.

Text color:
Chord color:
Chord grids: 
Font size:    
Page size: 

A B B5 Bm C C5 D D#5 D5 E E5 Em F5 G#5 G5
Rate #0 of 1 versions

Jango Player

Login - add to songbook

SHARE PAGE  




You need to log in to post comments