Guitar Tabs, Chords and Lyrics
Major upgrade!! After one year development the new version of Chordie is now online! Please give feedback.


Justin   Korn

 
 |--------|
 |--------|
 |--------|
 |--------|
 |--------|

 


 


 E E. E. Q Q +E E. E. Q S S E +E E. E. Q Q +E E. E. E S S S S E


 

 
 |---------------|--------------------|-----------------|-----------------4h5---|
 |------------6--|-(6)----------6h7p6-|-(6)----------6--|-(6)---------5h6-------|
 |---5--5--4-----|-----5--5--4--------|-----5--5--4-----|-----5--5--4-----------|
 |---------------|--------------------|-----------------|---------------------0-|
 |---------------|--------------------|-----------------|-----------------------|

 


 


 E E. E. Q Q +E E. E. E S S S S S S E E. E. Q Q +E E. E. Q Q


 

 
 |---------------|-----------------4h5-10p9-|---------------|-----------------|
 |------------6--|-(6)---------5h6----------|------------6--|-(6)----------6--|
 |---5--5--4-----|-----5--5--4--------------|---5--5--4-----|-----5--5--4-----|
 |---------------|--------------------------|---------------|-----------------|
 |---------------|--------------------------|---------------|-----------------|

 


 


 Gtrs I, II


 e E S e S e E S e S S S E S e S e E S S S S 4x


 

 
 ||----------------------|--------------------------||
 ||o---------------------|-------------------------o||
 ||----------------------|--------------------------||
 ||o---------------------|-------------------------o||
 ||--0-0---0-0-0-0---0-0-|-0-0-0---0-0-0-0---6-0-6--||

 


 


 1st Verse


 Gtr I


 E E. E. Q Q +E E. E. Q Q +E E. E. Q Q +E E. E. E S S S S E


 

 
 |---------------|-----------------|-----------------|-----------------4h5---|
 |------------6--|-(6)----------6--|-(6)----------6--|-(6)---------5h6-------|
 |---5--5--4-----|-----5--5--4-----|-----5--5--4-----|-----5--5--4-----------|
 |---------------|-----------------|-----------------|---------------------0-|
 |---------------|-----------------|-----------------|-----------------------|

 


 


 E E. E. Q Q +E E. E. Q S S E +E E. E. Q Q +E E. E. Q Q


 

 
 |---------------|--------------------|-----------------|------------------|
 |------------6--|-(6)----------6h7p6-|-(6)----------6--|-(6)--------------|
 |---5--5--4-----|-----5--5--4--------|-----5--5--4-----|-----5--5--4------|
 |---------------|--------------------|-----------------|--------------4---|
 |---------------|--------------------|-----------------|------------------|


Important: The song above is NOT stored on the Chordie server. The original song is hosted at www.guitartabs.cc. Chordie works as a search engine and provides on-the-fly formatting. Chordie does not index songs against artists'/composers' will. To remove this song please click here.

This song is displayed as text-only. Transposing and tuning is only available for chordpro-songs.
Rate #1 of 4 versions

Jango Player

Login - add to songbook

SHARE PAGE  



You need to log in to post comments