Guitar Tabs, Chords and Lyrics
Server problems seems to be fixed. Chordie has been experiencing problems with songs disappearing. These issues now seems to be fixed, but still verifying the fix. If you find anything strange, please email admin@chordie.com.


No One's There  Korn

Gtr I (A D G C F A D) - 'Munky'
Gtr II (A D G C F A D) - 'Head'
Gtr III (A D G C F A D) - 'Munky'
Gtr IV (A D G C F A D) - 'Head w/Whammy'
Intro
Q=130
[B] [A] [G#] [G] 
[4/4] Gtr I
W W W W
 
 |----------|------------|----------|------|
 |----------|------------|----------|------|
 |----------|------------|----------|------|
 |----------|------------|----------|------|
 |----------|------------|----------|------|
 |----------|------------|----------|------|
 |-0--------|-/10--------|-9--------|-8----|

[B]Gtr II[A]
< <
[E] [E] [E] [E] [E] [E] [E] [E] [E] [E] [E] [E] [E] [E] [E] [E]  
 
 |-12-7-7-7-7-------|-----9-9-9-9---------|
 |------------------|---------------------|
 |--9-4-4-4-4-------|-----6-6-6-6---------|
 |------------------|---------------------|
 |------------------|---------------------|
 |------------------|---------------------|
 |------------0-0-0-|--0----------0--0--0-|

|
| Gtr I
| W H. E E
 
 |------------------|---------------------|
 |------------------|---------------------|
 |------------------|---------------------|
 |------------------|---------------------|
 |------------------|---------------------|
 |------------------|---------------------|
 |--0---------------|-10------------12-10-|

[G#] <[G]
[E] [E] [E] [E] [E] [E] [E] [E] [E] [E] [E] [E] [E] [E] [E] [E]  
 
 |---10-10-10-10-------|---14-14-14-14-12-12-12--|
 |---------------------|-------------------------|
 |----7--7--7--7-------|---11-11-11-11--9--9--9--|
 |---------------------|-------------------------|
 |---------------------|-------------------------|
 |---------------------|-------------------------|
 |-0-------------0-0-0-|-0-----------------------|

|
| W W
 
 |---------------------|-------------------------|
 |---------------------|-------------------------|
 |---------------------|-------------------------|
 |---------------------|-------------------------|
 |---------------------|-------------------------|
 |---------------------|-------------------------|
 |-9-------------------|-8-----------------------|

Verse
[E]Gtr[B]s II, III[C#]
[E] [E] [E] [E] [E] [E] [E] [E] [E] [E] [E] [E] [E] [E] [E] [E]  
 
 ||--12S7-7-7-7-------|---9-9-9-9-------|
 ||-------------------|-----------------|
 ||o--9S4-4-4-4-------|---6-6-6-6-------|
 ||-------------------|-----------------|
 ||o------------------|-----------------|
 ||-------------------|-----------------|
 ||-------------0-0-0-|-0---------0-0-0-|

E [D] E E E E E E E E [F#] E E E E [E] E E E 4x
 
 |---10-10-10-10-------|---14-14-14-14-12-12-12--||
 |---------------------|-------------------------||
 |----7--7--7--7-------|---11-11-11-11--9--9--9-o||
 |---------------------|-------------------------||
 |---------------------|------------------------o||
 |---------------------|-------------------------||
 |-0-------------0-0-0-|-0-----------------------||

$
[E]Gtr[B] IV[C#]
[E] [E] [E] [E] [E] [E] [E] [E] [E] [E] [E] [E] [E] [E] [E] [E]  
 
 ||--22-19-19-19-19-19-19-19-|-19-17-17-17-17-17-15-14-|
 ||--------------------------|-------------------------|
 ||o-------------------------|-------------------------|
 ||--------------------------|-------------------------|
 ||o-------------------------|-------------------------|
 ||--------------------------|-------------------------|
 ||--------------------------|-------------------------|

|
| Gtr III
| E E E E E E E E E E E E E E E E
 
 ||--12S=7--7--7--7----------|-----9--9--9--9----------|
 ||--------------------------|-------------------------|
 ||o--9S=4--4--4--4----------|-----6--6--6--6----------|
 ||--------------------------|-------------------------|
 ||o-------------------------|-------------------------|
 ||--------------------------|-------------------------|
 ||------------------0--0--0-|--0--------------0--0--0-|

[D] [F#] [E] 
[E] [E] [E] [E] [E] [E] [E] [E] [E] [E] [E] [E] [E] [E] [E] [E]  
 
 |-14-14-19-19-19-19-19-19-|-19-19-19-21-21-21-22-22--||
 |-------------------------|--------------------------||
 |-------------------------|-------------------------o||
 |-------------------------|--------------------------||
 |-------------------------|-------------------------o||
 |-------------------------|--------------------------||
 |-------------------------|--------------------------||

|
| E E E E E E E E E E E E E E E E
 
 |----10-10-10-10----------|----14-14-14-14-12-12-12--||
 |-------------------------|--------------------------||
 |-----7--7--7--7----------|----11-11-11-11--9--9--9-o||
 |-------------------------|--------------------------||
 |-------------------------|-------------------------o||
 |-------------------------|--------------------------||
 |--0--------------0--0--0-|--0-----------------------||

Pre-Chorus
[B]  
[E] [E] [E] [E] [E] [E] [E] [E] [E] [E] [E] [E] [E] [E] [E] [E]  
 
 |-14-14-14-14-14-14-14-14-|-14-14-14-14-14-14-14-14-|
 |-------------------------|-------------------------|
 |-11-11-11-11-11-11-11-11-|-11-11-11-11-11-11-11-11-|
 |-------------------------|-------------------------|
 |-------------------------|-------------------------|
 |-------------------------|-------------------------|
 |-------------------------|-------------------------|

|
| Q Q Q Q Q Q Q Q
 
 |-------------------------|-------------------------|
 |-------------------------|-------------------------|
 |-------------------------|-------------------------|
 |--------9-----9----------|--------9-----9----------|
 |-------------------------|-------------------------|
 |--------7-----7----------|--------7-----7----------|
 |--0-----------------0----|--0-----------------0----|

N.C.
[E] [E] [E] [E] [E] [E] [E] [E] [E] [E] [E] [E] [E] [E] [E] [E]  
 
 |-17-17-17-17-17-17-17-17-|-22-22-22-22-21-21-21-21--|
 |-------------------------|--------------------------|
 |-14-14-14-14-14-14-14-14-|-19-19-19-19-18-18-18-18--|
 |-------------------------|--------------------------|
 |-------------------------|--------------------------|
 |-------------------------|--------------------------|
 |-------------------------|--------------------------|

|
| Q Q Q Q Q Q Q Q
 
 |-------------------------|--------------------------|
 |-------------------------|--------------------------|
 |-------------------------|--------------------------|
 |-------------------------|--------------------------|
 |-------------------------|--------------------------|
 |-------------------------|--------------------------|
 |--3-----4-----3-----4----|--3-----1-----1-----0-----|

[B] Q E E E E E E E E E E E E Q
 
 |-21--14-14-14-14-14-14-|-14-14-14-14-14-14-12--|
 |-----------------------|-----------------------|
 |-18--11-11-11-11-11-11-|-11-11-11-11-11-11--9--|
 |-----------------------|-----------------------|
 |-----------------------|-----------------------|
 |-----------------------|-----------------------|
 |-----------------------|-----------------------|

|
| Q Q Q Q Q Q Q Q
 
 |-----------------------|-----------------------|
 |-----------------------|-----------------------|
 |-----------------------|-----------------------|
 |------9-----9----------|--------9-----9--------|
 |-----------------------|-----------------------|
 |------7-----7----------|--------7-----7--------|
 |--0---------------0----|--0-----------------0--|

N.C.
[E] [E] [E] [E] [E] [E] [E] [E] [E] [E] [E] [E] [E] [E] [E] [E]  
 
 |-17-17-17-17-17-17-17-17-|-17-17-22-22-21-21-21-21--||
 |-------------------------|--------------------------||
 |-14-14-14-14-14-14-14-14-|-14-14-19-19-18-18-18-18--||
 |-------------------------|--------------------------||
 |-------------------------|--------------------------||
 |-------------------------|--------------------------||
 |-------------------------|--------------------------||

|
| Q Q Q Q Q Q Q Q
 
 |-------------------------|--------------------------||
 |-------------------------|--------------------------||
 |-------------------------|--------------------------||
 |-------------------------|--------------------------||
 |-------------------------|--------------------------||
 |-------------------------|--------------------------||
 |--3-----4-----3-----4----|--3-----1-----1-----0-----||

Chorus
[E5]Q Q Q Q Q Q Q Q [G#5]Q Q Q Q [A5]Q Q Q Q 3x
 
 ||--7-----7-----|-7-----7-----|-7-----7-----|-8-----10--10---||
 ||--5--5--5--5--|-5--5--5--5--|-5--5--5--5--|-5--5---8-------||
 ||o-4-----4-----|-4-----4-----|-4-----4-----|-5------7------o||
 ||--------------|-------------|-------------|----------------||
 ||o-------------|-------------|-------------|---------------o||
 ||--------------|-------------|-------------|----------------||
 ||--------------|-------------|-------------|----------------||

|
| Q Q Q Q Q Q Q Q Q Q Q Q Q Q Q Q 3x
 
 ||--------------|-------------|-------------|----------------||
 ||--------------|-------------|-------------|----------------||
 ||o-------------|-------------|-------------|---------------o||
 ||--2--2--2--2--|-2--2--2--2--|-6--6--6--6--|-7--7---7---7---||
 ||o-2--2--2--2--|-2--2--2--2--|-6--6--6--6--|-7--7---7---7--o||
 ||--0--0--0--0--|-0--0--0--0--|-4--4--4--4--|-5--5---5---5---||
 ||--------------|-------------|-------------|----------------||

To Coda
[E5]Q Q Q Q Q Q Q Q [G#5]Q Q Q Q [F5]Q Q Q Q
 
 |-7-----7-----|-7-----7-----|-7-----7-----|-8-----5------||
 |-5--5--5--5--|-5--5--5--5--|-5--5--5--5--|-6--6-----6---||
 |-4-----4-----|-4-----4-----|-4-----4-----|-5------------||
 |-------------|-------------|-------------|--------------||
 |-------------|-------------|-------------|--------------||
 |-------------|-------------|-------------|--------------||
 |-------------|-------------|-------------|--------------||

|
| Q Q Q Q Q Q Q Q Q Q Q Q Q Q Q Q
 
 |-------------|-------------|-------------|--------------||
 |-------------|-------------|-------------|--------------||
 |-------------|-------------|-------------|--------------||
 |-2--2--2--2--|-2--2--2--2--|-6--6--6--6--|-3--3--3--3---||
 |-2--2--2--2--|-2--2--2--2--|-6--6--6--6--|-3--3--3--3---||
 |-0--0--0--0--|-0--0--0--0--|-4--4--4--4--|-1--1--1--1---||
 |-------------|-------------|-------------|--------------||

Verse
[E]Gtr[B]s II, III[C#]
[E] [E] [E] [E] [E] [E] [E] [E] [E] [E] [E] [E] [E] [E] [E] [E]  
 
 ||--12S7-7-7-7-------|---9-9-9-9-------|
 ||-------------------|-----------------|
 ||o--9S4-4-4-4-------|---6-6-6-6-------|
 ||-------------------|-----------------|
 ||o------------------|-----------------|
 ||-------------------|-----------------|
 ||-------------0-0-0-|-0---------0-0-0-|

D.S. al Coda
[D] [F#] [E] 
[E] [E] [E] [E] [E] [E] [E] [E] [E] [E] [E] [E] [E] [E] [E] [E]  
 
 |---10-10-10-10-------|---14-14-14-14-12-12-12----||
 |---------------------|---------------------------||
 |----7--7--7--7-------|---11-11-11-11--9--9--9---o||
 |---------------------|---------------------------||
 |---------------------|--------------------------o||
 |---------------------|---------------------------||
 |-0-------------0-0-0-|-0-------------------------||

Bridge
&
[B5]Gtr IV
[E] [E] [E] [E] [E] [E] [E] [E] [E] [E] [E] [E] [E] [E] [E] [E]  
 
 ||--14-14-14-14-14-14-14-14-|-14-14-14-14-14-14-14-14-|
 ||--------------------------|-------------------------|
 ||o-11-11-11-11-11-11-11-11-|-11-11-11-11-11-11-11-11-|
 ||--------------------------|-------------------------|
 ||o-------------------------|-------------------------|
 ||--------------------------|-------------------------|
 ||--------------------------|-------------------------|

|
| Gtr III
| E E E E E E E E E E E E E E E E
 
 ||--------------------------|-------------------------|
 ||--------------------------|-------------------------|
 ||o-------------------------|-------------------------|
 ||--------------------------|-------------------------|
 ||o--------------------2----|--------------------2----|
 ||---2--2-----2--2----------|--2--2-----2--2----------|
 ||---0--0-----0--0--------0-|--0--0-----0--0--------0-|

E E E E E E E E E E E E E E Q
 
 |-17-17-17-17-17-17-17-17-|-17-22-22-22-21---21----||
 |-------------------------|------------------------||
 |-14-14-14-14-14-14-14-14-|-14-19-19-19-18---18---o||
 |-------------------------|------------------------||
 |-------------------------|-----------------------o||
 |-------------------------|------------------------||
 |-------------------------|------------------------||

|
| E E E E E E E E E E E E E E E E
 
 |-------------------------|------------------------||
 |-------------------------|------------------------||
 |-------------------------|-----------------------o||
 |-------------------------|------------------------||
 |--------------------2----|-------------------2---o||
 |--2--2-----2--2--------2-|--2--2-----2--2------2--||
 |--0--0-----0--0--------0-|--0--0-----0--0------0--||

[B5]  
[E] [E] [E] [E] [E] [E] [E] [E] [E] [E] [E] [E] [E] [E] [E] [E]  
 
 ||--22-19-19-19-19-19-19-19-|-19-17-17-17-17-17-15-15-|
 ||--------------------------|-------------------------|
 ||o-19-16-16-16-16-16-16-16-|-16-14-14-14-14-14-12-12-|
 ||--------------------------|-------------------------|
 ||o-------------------------|-------------------------|
 ||--------------------------|-------------------------|
 ||--------------------------|-------------------------|

|
| E E E E E E E E E E E E E E E E
 
 ||--------------------------|-------------------------|
 ||--------------------------|-------------------------|
 ||o-------------------------|-------------------------|
 ||--------------------------|-------------------------|
 ||o--------------------2----|--------------------2----|
 ||---2--2-----2--2----------|--2--2-----2--2----------|
 ||---0--0-----0--0--------0-|--0--0-----0--0--------0-|

E E Q E E E E E E E E E E E E
 
 |-15-14------19-19-19-19-|-19-19-21-21-21-21-22-22--||
 |-------12---------------|--------------------------||
 |-12-11------16-16-16-16-|-16-16-18-18-18-18-19-19-o||
 |--------9---------------|--------------------------||
 |------------------------|-------------------------o||
 |------------------------|--------------------------||
 |------------------------|--------------------------||

|
| E E E E E E E E E E E E E E E E
 
 |------------------------|--------------------------||
 |------------------------|--------------------------||
 |------------------------|-------------------------o||
 |------------------------|--------------------------||
 |-------------------2----|--------------------2----o||
 |--2--2----2--2----------|--2--2-----2--2-----------||
 |--0--0----0--0--------0-|--0--0-----0--0--------0--||

[E5/B]Q Q Q Q Q Q Q Q Q Q Q Q [C]Q Q [G5/D] Q Q
 
 |-7-----7-----|-7-----7-----|-7-----7-----|-8-----10--10---|
 |-5--5--5--5--|-5--5--5--5--|-5--5--5--5--|-5--5---8-------|
 |-4-----4-----|-4-----4-----|-4-----4-----|-5------7-------|
 |-------------|-------------|-------------|----------------|
 |-------------|-------------|-------------|----------------|
 |-------------|-------------|-------------|----------------|
 |-------------|-------------|-------------|----------------|

[E5/B]Q Q Q Q Q Q Q Q Q Q Q Q [F5/C]Q Q Q Q
 
 |-7-----7-----|-7-----7-----|-7-----7-----|-8-----5------||
 |-5--5--5--5--|-5--5--5--5--|-5--5--5--5--|-6--6-----6---||
 |-4-----4-----|-4-----4-----|-4-----4-----|-5------------||
 |-------------|-------------|-------------|--------------||
 |-------------|-------------|-------------|--------------||
 |-------------|-------------|-------------|--------------||
 |-------------|-------------|-------------|--------------||

Out-Chorus
[E5]Q Q Q Q Q Q Q Q [G#5]Q Q Q Q [A5]Q Q Q Q
 
 ||--7-----7-----|-7-----7-----|-7-----7-----|-8-----10--10--|
 ||--5--5--5--5--|-5--5--5--5--|-5--5--5--5--|-5--5---8------|
 ||o-4-----4-----|-4-----4-----|-4-----4-----|-5------7------|
 ||--------------|-------------|-------------|---------------|
 ||o-------------|-------------|-------------|---------------|
 ||--------------|-------------|-------------|---------------|
 ||--------------|-------------|-------------|---------------|

|
| Gtr III
| Q Q Q Q Q Q Q Q Q Q Q Q Q Q Q Q
 
 ||--------------|-------------|-------------|---------------|
 ||--------------|-------------|-------------|---------------|
 ||o-------------|-------------|-------------|---------------|
 ||--2--2--2--2--|-2--2--2--2--|-6--6--6--6--|-7--7---7---7--|
 ||o-2--2--2--2--|-2--2--2--2--|-6--6--6--6--|-7--7---7---7--|
 ||--0--0--0--0--|-0--0--0--0--|-4--4--4--4--|-5--5---5---5--|
 ||--------------|-------------|-------------|---------------|

[E5]Q Q Q Q Q Q Q Q [G#5]Q Q Q Q [A5]Q Q Q Q
 
 |-7-----7-----|-7-----7-----|-7-----7-----|-8-----10--10---|
 |-5--5--5--5--|-5--5--5--5--|-5--5--5--5--|-5--5---8-------|
 |-4-----4-----|-4-----4-----|-4-----4-----|-5------7-------|
 |-------------|-------------|-------------|----------------|
 |-------------|-------------|-------------|----------------|
 |-------------|-------------|-------------|----------------|
 |-------------|-------------|-------------|----------------|

|
| Q Q Q Q Q Q Q Q Q Q Q Q Q Q Q Q
 
 |-------------|-------------|-------------|----------------|
 |-------------|-------------|-------------|----------------|
 |-------------|-------------|-------------|----------------|
 |-2--2--2--2--|-2--2--2--2--|-6--6--6--6--|-7--7---7---7---|
 |-2--2--2--2--|-2--2--2--2--|-6--6--6--6--|-7--7---7---7---|
 |-0--0--0--0--|-0--0--0--0--|-4--4--4--4--|-5--5---5---5---|
 |-------------|-------------|-------------|----------------|

[E5]Q Q Q Q Q Q Q Q [G#5]Q Q Q Q [A5]Q Q Q Q
 
 |-7-----7-----|-7-----7-----|-7-----7-----|-8-----10--10---|
 |-5--5--5--5--|-5--5--5--5--|-5--5--5--5--|-5--5---8-------|
 |-4-----4-----|-4-----4-----|-4-----4-----|-5------7-------|
 |-------------|-------------|-------------|----------------|
 |-------------|-------------|-------------|----------------|
 |-------------|-------------|-------------|----------------|
 |-------------|-------------|-------------|----------------|

|
| Q Q Q Q Q Q Q Q Q Q Q Q Q Q Q Q
 
 |-------------|-------------|-------------|----------------|
 |-------------|-------------|-------------|----------------|
 |-------------|-------------|-------------|----------------|
 |-2--2--2--2--|-2--2--2--2--|-6--6--6--6--|-7--7---7---7---|
 |-2--2--2--2--|-2--2--2--2--|-6--6--6--6--|-7--7---7---7---|
 |-0--0--0--0--|-0--0--0--0--|-4--4--4--4--|-5--5---5---5---|
 |-------------|-------------|-------------|----------------|

1.
[E5]Q Q Q Q Q Q Q Q [G#5]Q Q Q Q [F5]Q Q Q Q
 
 |-7-----7-----|-7-----7-----|-7-----7-----|-8-----5-------||
 |-5--5--5--5--|-5--5--5--5--|-5--5--5--5--|-6--6-----6----||
 |-4-----4-----|-4-----4-----|-4-----4-----|-5------------o||
 |-------------|-------------|-------------|---------------||
 |-------------|-------------|-------------|--------------o||
 |-------------|-------------|-------------|---------------||
 |-------------|-------------|-------------|---------------||

|
| Q Q Q Q Q Q Q Q Q Q Q Q Q Q Q Q
 
 |-------------|-------------|-------------|---------------||
 |-------------|-------------|-------------|---------------||
 |-------------|-------------|-------------|--------------o||
 |-2--2--2--2--|-2--2--2--2--|-6--6--6--6--|-3--3--3--3----||
 |-2--2--2--2--|-2--2--2--2--|-6--6--6--6--|-3--3--3--3---o||
 |-0--0--0--0--|-0--0--0--0--|-4--4--4--4--|-1--1--1--1----||
 |-------------|-------------|-------------|---------------||

2.
[F5]Q Q Q Q [E5]W W
 
 |-8-----5-----|----------|--------*|
 |-6--6-----6--|----------|--------*|
 |-5-----------|----------|--------*|
 |-------------|----------|--------*|
 |-------------|----------|--------*|
 |-------------|----------|--------*|
 |-------------|----------|--------*|

|
| Q Q Q Q W +W
 
 |-------------|----------|--------*|
 |-------------|----------|--------*|
 |-------------|----------|--------*|
 |-3--3--3--3--|-2--------|-(2)----*|
 |-3--3--3--3--|-2--------|-(2)----*|
 |-1--1--1--1--|-0--------|-(0)----*|
 |-------------|----------|--------*|
 --------------------------------------------------------------------------------

Duration Legend
 
 ---------------
 W - whole; H - half; Q - quarter; E - 8th; S - 16th; T - 32nd; X - 64th; a - acciaccatura

+ - note tied to previous; . - note dotted; .. - note double dotted
Uncapitalized letters represent notes that are staccato (1/2 duration)
Irregular groupings are notated above the duration line
Duration letters will always appear directly above the note/fret number it represents the
duration for. Duration letters with no fret number below them represent rests. Multi-
bar rests are notated in the form Wxn, where n is the number of bars to rest for. Low
melody durations appear below the staff
Tablature Legend
 
 ----------------

h - hammer-on
p - pull-off
b - bend
pb - pre-bend
r - bend release (if no number after the r, then release immediately)
/\ - slide into or out of (from/to "nowhere")
s - legato slide
S - shift slide
- natural harmonic
(n) - artificial harmonic
n(n) - tapped harmonic
~ - vibrato
tr - trill
T - tap
TP - trem. picking
PM - palm muting
\n/ - tremolo bar dip; n = amount to dip
\n - tremolo bar down
n/ - tremolo bar up
/n\ - tremolo bar inverted dip
= - hold bend; also acts as connecting device for hammers/pulls
- volume swell (louder/softer)
x - on rhythm slash represents muted slash
o - on rhythm slash represents single note slash
Misc Legend
 
 -----------

| - bar
|| - double bar
||o - repeat start
o|| - repeat end
*| - double bar (ending)
: - bar (freetime)
$ - Segno
& - Coda
Tempo markers - = BPM(8/16=s8/s16), where s8 = swing 8ths, s16 = swing 16ths

Important: The song above is NOT stored on the Chordie server. The original song is hosted at www.guitartabs.cc. Chordie works as a search engine and provides on-the-fly formatting. Chordie does not index songs against artists'/composers' will. To remove this song please click here.

Text color:
Chord color:
Chord grids: 
Font size:    
Page size: 

A A5 B B5 C C# D E E5 E5/B F# F5 F5/C G G# G#5 G5/D
Rate #1 of 1 versions

Login - add to songbook

SHARE PAGE  




You need to log in to post comments