Guitar Tabs, Chords and Lyrics
Major upgrade!! After one year development the new version of Chordie is now online! Please give feedback.


Predictable   Korn

 
 F[----------------------------------]
 C[----------------------------------]
 G[----------------------------------]
 D[--------3\2--------------3\2------]
 A[-0--0-0-----0-2/3--0-2/3-----2/3--]

 


 


 pre-chorus x2


 

 
 F[----------------------]
 C[----------------------]
 G[----------------------]
 D[----------------------]
 A[--0-0--0-0---0-0--0-0-]

 


 


 chrous x4


 

 
 F[-----------------------------------------------------------]
 C[-----------------------------------------------------------]
 G[-----------------------------------------------------------]
 D[-----------------------------------------------------------]

 


 A[--13\12121212\11111111\10101010\9999-5\4444\3333\2222\1111-]


 12's 11's 10's 1's


 


 bridge 1 x2


 

 
 F[-------------------------]
 C[-------------------------]
 G[-------------------------]
 D[-------------------------]
 A[-0-0--0-0--0-0--0--0-0-0-]

 


 


 bridge 2 x10


 

 
 F[------------------------]
 C[------------------------]
 G[------------------1-0---]
 D[-0-----3-2-2--3-1-----2-]
 A[---0-1------------------]

 


 


 after bridge 2 x4


 

 
 F[--------------]
 C[--------------]
 G[--------1-1-2-]
 D[--0-----------]
 A[----0-1-------]


Important: The song above is NOT stored on the Chordie server. The original song is hosted at www.guitartabs.cc. Chordie works as a search engine and provides on-the-fly formatting. Chordie does not index songs against artists'/composers' will. To remove this song please click here.

This song is displayed as text-only. Transposing and tuning is only available for chordpro-songs.
Rate #1 of 2 versions

Jango Player

Login - add to songbook

SHARE PAGE  



You need to log in to post comments