Guitar Tabs, Chords and Lyrics
Server problems seems to be fixed. Chordie has been experiencing problems with songs disappearing. These issues now seems to be fixed, but still verifying the fix. If you find anything strange, please email admin@chordie.com.


Pretty  Korn

Gtr I (A D G C F A D) - 'Elec. Gtr. 1'
Gtr II (A D G C F A D) - 'Elec. Gtr. 2'
Gtr III (A D G C F A D) - 'Elec. Gtr. 3'
Gtr IV (A D G C F A D) - 'Elec. Gtr. 4'
Intro
Moder. Slow / Tempo I Q=92
N.C.
[4/4] Gtr I
S S S S S S S S S S S S S S E S S S S S S S S S S S S S S E
 
 ||----------------------------------|----------------------------------||
 ||----------------------------------|----------------------------------||
 ||o---------------------------10-10-|---------------------------10-10-o||
 ||------------------9-9---9----9--9-|-----------------9-9---9----9--9--||
 ||o-8-8---8---8-8---8-8---8---------|-8-8---8---8-8---8-8---8---------o||
 ||--7-7---7---7-7-------------------|-7-7---7---7-7--------------------||
 ||----------------------------------|----------------------------------||

Gtrs I, II Gtr I
S S S S S S S S S S S S S S E 8x S S S S S S S S S S S S S S E
 
 ||-----------------------------------||---------------------------------||
 ||-----------------------------------||---------------------------------||
 ||o---------------------------10-10-o||---------------------------10-10-||
 ||------------------9-9---9----9--9--||-----------------9-9---9----9--9-||
 ||o-8-8---8---8-8---8-8---8---------o||-8-8---8---8-8---8-8---8---------||
 ||--7-7---7---7-7--------------------||-7-7---7---7-7-------------------||
 ||-----------------------------------||---------------------------------||

Verses 1 & 2
Faster / Tempo II Q=108
[B5]Gtr III
E Q Q Q. E Q E +H E Q Q Q. Q. E +H
 
 ||---------------|---------------|----------------------|----------------------|
 ||---------------|---------------|----------------------|---------5-(5)--------|
 ||o------4--2----|------5-(5)----|---------4---2--------|--/5------------------|
 ||---------------|---------------|----------------------|----------------------|
 ||o---2----------|---2-----------|-----2----------------|----------------------|
 ||---------------|---------------|----------------------|--/5------------------|
 ||--0------------|-0-------------|--0-------------------|----------------------|

|
| Gtr IV
| W W Q. Q. E E +Q. Q Q.
 
 ||---------------|---------------|-15-----14------14----|--------17------------|
 ||---------------|---------------|-------------------15-|-(15)----------14-----|
 ||o--------------|---------------|----------------------|----------------------|
 ||---------------|---------------|----------------------|----------------------|
 ||o--------------|---------------|----------------------|----------------------|
 ||---------------|---------------|----------------------|----------------------|
 ||---------------|---------------|----------------------|----------------------|

E Q Q Q. E Q E +H E Q Q Q. Q. E +H
 
 |---------------|------------------|------------------|---------------------|
 |---------------|------------------|------------------|----------5-(5)------|
 |-------4--2----|---------5-(5)----|-------4-----2----|-/5------------------|
 |---------------|------------------|------------------|---------------------|
 |----2----------|------2-----------|----2-------------|---------------------|
 |---------------|------------------|------------------|-/5------------------|
 |--0------------|---0--------------|-0----------------|---------------------|

|
| W +H H Q. E +H +E +H Q.
 
 |---------------|------------------|------------------|---------------------|
 |---------------|------------------|------------------|---------------------|
 |-14------------|-(14)-------------|------------------|---------------------|
 |---------------|------------------|------------------|---------------------|
 |---------------|------------------|-------2-(2)------|-(2)-(2)--------3----|
 |---------------|------------------|------------------|---------------------|
 |---------------|------------------|------------------|---------------------|

E Q Q Q. E Q E +H
 
 |------------------|------------------|
 |------------------|------------------|
 |----------4--2----|--------5-(5)-----|
 |------------------|------------------|
 |-----2------------|-----2------------|
 |------------------|------------------|
 |--0---------------|--0---------------|

|
| +Q H. +H. Q
 
 |------------------|------------------|
 |------------------|------------------|
 |------------------|------------------|
 |------------------|------------------|
 |-(3)---2----------|-(2)--------------|
 |------------------|------------------|
 |------------------|------------------|

E Q Q Q. Q. E +H
 
 |----------------------|---------------------|
 |----------------------|---------5-(5)-------|
 |---------4---2--------|--/5-----------------|
 |----------------------|---------------------|
 |-----2----------------|---------------------|
 |----------------------|--/5-----------------|
 |--0-------------------|---------------------|

|
| Q. Q. E E +Q. Q Q.
 
 |-15-----14------14----|--------17-----------|
 |-------------------15-|-(15)----------14----|
 |----------------------|---------------------|
 |----------------------|---------------------|
 |----------------------|---------------------|
 |----------------------|---------------------|
 |----------------------|---------------------|

E Q Q Q. E Q E +H
 
 |---------------|------------------|
 |---------------|------------------|
 |-------4--2----|---------5-(5)----|
 |---------------|------------------|
 |----2----------|------2-----------|
 |---------------|------------------|
 |--0------------|---0--------------|

|
| W +H H
 
 |---------------|------------------|
 |---------------|------------------|
 |-14------------|-(14)-------------|
 |---------------|------------------|
 |---------------|------------------|
 |---------------|------------------|
 |---------------|------------------|

1.
To Coda
E Q Q Q. Q. E +H
 
 |-----------------------|------------------------------||
 |-----------------------|----------------5-(5)---------||
 |-------4--2------------|-/5---------------------------||
 |-----------------------|------------------------------||
 |---2-------------------|------------------------------||
 |-----------------------|-/5---------------------------||
 |-0---------------------|------------------------------||

|
| Gtr II
| Q H +E +E +S +S +Q. E E Q
 
 |-----------------------|----------------------24\-0---||
 |-----------------------|--------------------------0---||
 |-----------------------|------------------------------||
 |-----------------------|------------------------------||
 |-----2-------(2)b3r(2)-|-(2)-(2)b3-(2)----------------||
 |-----------------------|------------------------------||
 |-----------------------|------------------------------||

Chorus
[B5]Gtr I
Q. E H Q. E +H Q. E H Q. E +H
 
 |-------------|---------------|-------------|---------------|
 |-------------|---------------|-------------|---------------|
 |-------------|---------------|-------------|---------------|
 |-------------|---------------|-------------|---------------|
 |-4----6-6----|-2----3-(3)----|-4----6-6----|-2----3-(3)----|
 |-5----7-7----|-3----1-(1)----|-5----7-7----|-3----1-(1)----|
 |------0-0----|---------------|------0-0----|---------------|

|
| Gtr II
| W Q. E +H W Q. E +H
 
 |-------------|---------------|-------------|---------------|
 |-------------|---------------|-------------|---------------|
 |-------------|-2----3-(3)----|-------------|-2----3-(3)----|
 |-------------|-5----0-(0)----|-------------|-5----0-(0)----|
 |-------------|---------------|-------------|---------------|
 |-------------|---------------|-------------|---------------|
 |-------------|---------------|-------------|---------------|

Q. E H Q. E +H Q. E H [3/4] Q. Q.
 
 |-------------|---------------|-------------|------------||
 |-------------|---------------|-------------|------------||
 |-------------|---------------|-------------|------------||
 |-------------|---------------|-------------|------------||
 |-4----6-6----|-2----3-(3)----|-4----6-6----|-2----3-----||
 |-5----7-7----|-3----1-(1)----|-5----7-7----|-3----1-----||
 |------0-0----|---------------|------0-0----|------------||

|
| W Q. E +H W Q. Q.
 
 |-------------|---------------|-------------|------------||
 |-------------|---------------|-------------|------------||
 |-------------|-2----3-(3)----|-------------|-2----3-----||
 |-------------|-5----0-(0)----|-------------|-5----0-----||
 |-------------|---------------|-------------|------------||
 |-------------|---------------|-------------|------------||
 |-------------|---------------|-------------|------------||

( Tab from: http://www.guitartabs.cc/tabs/k/korn/pretty_tab_ver_3.html )
[4/4] +W +W +W
 
 |------------|------------|------------|
 |------------|------------|------------|
 |------------|------------|------------|
 |------------|------------|------------|
 |-(3)--------|-(3)--------|-(3)--------|
 |-(1)--------|-(1)--------|-(1)--------|
 |------------|------------|------------|

|
| +W +W +W
 
 |------------|------------|------------|
 |------------|------------|------------|
 |-(3)--------|-(3)--------|-(3)--------|
 |-(0)--------|-(0)--------|-(0)--------|
 |------------|------------|------------|
 |------------|------------|------------|
 |------------|------------|------------|

2.
Gtr III
W Q. E +H
 
 |-----------||-------------------------------||
 |-----------||-----------------5--(5)--------||
 |----------o||-/5----------------------------||
 |-----------||-------------------------------||
 |----------o||-------------------------------||
 |-----------||-/5----------------------------||
 |-----------||-------------------------------||

|
| Gtr IV Gtr II
| W S +S +Q Q. S S E
 
 |-----------||-------------------------x-x---||
 |-----------||----------------15-------x-x---||
 |----------o||-------------------------------||
 |-----------||-------------------------------||
 |----------o||--2--(2)b3-(2)-----------------||
 |-----------||-------------------------------||
 |-----------||-------------------------------||

Chorus
[B5]  
[4/4] Gtr I
Q. E H Q. E +H Q. E H Q. E +H
 
 ||--------------|------------------|-------------|-------------------||
 ||--------------|------------------|-------------|-------------------||
 ||o-------------|------------------|-------------|------------------o||
 ||--------------|------------------|-------------|-------------------||
 ||o-4----6-6----|-2----3--(3)------|-4----6-6----|-2----3--(3)------o||
 ||--5----7-7----|-3----1--(1)------|-5----7-7----|-3----1--(1)-------||
 ||-------0-0----|------------------|------0-0----|-------------------||

|
| Gtr II
| TP TP TP TP TP TP TP TP
| W Q. Q. Q W Q. Q. Q
 
 ||--7-----------|------------------|-7-----------|-------------------||
 ||--------------|-7----8-------10--|-------------|-7----8-------10---||
 ||o-4-----------|------------------|-4-----------|------------------o||
 ||--------------|-4----5--------7--|-------------|-4----5--------7---||
 ||o-------------|------------------|-------------|------------------o||
 ||--------------|------------------|-------------|-------------------||
 ||--------------|------------------|-------------|-------------------||

Q. E H Q. E +H Q. E H Q. E +H
 
 ||-----------------|------------------|-------------|--------------------||
 ||-----------------|------------------|-------------|--------------------||
 ||o----------------|------------------|-------------|-------------------o||
 ||-----------------|------------------|-------------|--------------------||
 ||o-4----6--6------|-2----3--(3)------|-4----6-6----|-2----3--(3)-------o||
 ||--5----7--7------|-3----1--(1)------|-5----7-7----|-3----1--(1)--------||
 ||-------0--0------|------------------|------0-0----|--------------------||

|
| TP TP TP TP TP TP TP TP TP TP
| Q. Q. Q Q. Q. Q W Q. Q. Q
 
 ||--7----9-----10--|------------------|-7-----------|--------------------||
 ||-----------------|-7----8-------10--|-------------|-7----8-------10----||
 ||o-4----6------7--|------------------|-4-----------|-------------------o||
 ||-----------------|-4----5--------7--|-------------|-4----5--------7----||
 ||o----------------|------------------|-------------|-------------------o||
 ||-----------------|------------------|-------------|--------------------||
 ||-----------------|------------------|-------------|--------------------||

Bridge
Moder. Slow / Tempo I Q=92
N.C.
Gtr I
S S S S S S S S S S S S S S E S S S S S S S S S S S S S S E 6x
 
 ||----------------------------------|----------------------------------||
 ||----------------------------------|----------------------------------||
 ||o---------------------------10-10-|---------------------------10-10-o||
 ||------------------9-9---9----9--9-|-----------------9-9---9----9--9--||
 ||o-8-8---8---8-8---8-8---8---------|-8-8---8---8-8---8-8---8---------o||
 ||--7-7---7---7-7-------------------|-7-7---7---7-7--------------------||
 ||----------------------------------|----------------------------------||

Gtrs I, II
S S S S S S S S S S S S S S E S S S S S S S S S S S S S S E 4x
 
 ||----------------------------------|----------------------------------||
 ||----------------------------------|----------------------------------||
 ||o---------------------------10-10-|---------------------------10-10-o||
 ||------------------9-9---9----9--9-|-----------------9-9---9----9--9--||
 ||o-8-8---8---8-8---8-8---8---------|-8-8---8---8-8---8-8---8---------o||
 ||--7-7---7---7-7-------------------|-7-7---7---7-7--------------------||
 ||----------------------------------|----------------------------------||

Chorus
Faster / Tempo II Q=108
[B5]Gtr I
Q. E H Q. E +H Q. E H Q. E +H
 
 ||--------------|---------------|-------------|----------------||
 ||--------------|---------------|-------------|----------------||
 ||o-------------|---------------|-------------|---------------o||
 ||--------------|---------------|-------------|----------------||
 ||o-4----6-6----|-2----3-(3)----|-4----6-6----|-2----3-(3)----o||
 ||--5----7-7----|-3----1-(1)----|-5----7-7----|-3----1-(1)-----||
 ||-------0-0----|---------------|------0-0----|----------------||

|
| Gtr II
| W Q. E +H W Q. E +H
 
 ||--------------|---------------|-------------|----------------||
 ||--------------|---------------|-------------|----------------||
 ||o-------------|-2----3-(3)----|-------------|-2----3-(3)----o||
 ||--------------|-5----0-(0)----|-------------|-5----0-(0)-----||
 ||o-------------|---------------|-------------|---------------o||
 ||--------------|---------------|-------------|----------------||
 ||--------------|---------------|-------------|----------------||

Q. E H Q. E +H
 
 ||-----------------|------------------|
 ||-----------------|------------------|
 ||o----------------|------------------|
 ||-----------------|------------------|
 ||o-4----6--6------|-2----3--(3)------|
 ||--5----7--7------|-3----1--(1)------|
 ||-------0--0------|------------------|

|
| TP TP TP TP TP TP
| Q. Q. Q Q. Q. Q
 
 ||--7----9-----10--|------------------|
 ||-----------------|-7----8-------10--|
 ||o-4----6------7--|------------------|
 ||-----------------|-4----5--------7--|
 ||o----------------|------------------|
 ||-----------------|------------------|
 ||-----------------|------------------|

1. 2.
N.C.
Q. E H Q. E +H W
 
 |----------------|-------------------||------*|
 |----------------|-------------------||------*|
 |----------------|------------------o||------*|
 |----------------|-------------------||------*|
 |-4----6--6------|-2----3--(3)------o||------*|
 |-5----7--7------|-3----1--(1)-------||------*|
 |------0--0------|-------------------||------*|

|
| TP TP TP TP TP TP
| Q. Q. Q Q. Q. Q W
 
 |-7----9-----10--|-------------------||------*|
 |----------------|-7----8-------10---||------*|
 |-4----6------7--|------------------o||------*|
 |----------------|-4----5--------7---||------*|
 |----------------|------------------o||------*|
 |----------------|-------------------||------*|
 |----------------|-------------------||------*|
 --------------------------------------------------------------------------------

Duration Legend
 
 ---------------
 W - whole; H - half; Q - quarter; E - 8th; S - 16th; T - 32nd; X - 64th; a - acciaccatura

+ - note tied to previous; . - note dotted; .. - note double dotted
Uncapitalized letters represent notes that are staccato (1/2 duration)
Irregular groupings are notated above the duration line
Duration letters will always appear directly above the note/fret number it represents the
duration for. Duration letters with no fret number below them represent rests. Multi-
bar rests are notated in the form Wxn, where n is the number of bars to rest for. Low
melody durations appear below the staff
Tablature Legend
 
 ----------------

h - hammer-on
p - pull-off
b - bend
pb - pre-bend
r - bend release (if no number after the r, then release immediately)
/\ - slide into or out of (from/to "nowhere")
s - legato slide
S - shift slide
- natural harmonic
(n) - artificial harmonic
n(n) - tapped harmonic
~ - vibrato
tr - trill
T - tap
TP - trem. picking
PM - palm muting
\n/ - tremolo bar dip; n = amount to dip
\n - tremolo bar down
n/ - tremolo bar up
/n\ - tremolo bar inverted dip
= - hold bend; also acts as connecting device for hammers/pulls
- volume swell (louder/softer)
x - on rhythm slash represents muted slash
o - on rhythm slash represents single note slash
Misc Legend
 
 -----------

| - bar
|| - double bar
||o - repeat start
o|| - repeat end
*| - double bar (ending)
: - bar (freetime)
$ - Segno
& - Coda
Tempo markers - = BPM(8/16=s8/s16), where s8 = swing 8ths, s16 = swing 16ths

Important: The song above is NOT stored on the Chordie server. The original song is hosted at www.guitartabs.cc. Chordie works as a search engine and provides on-the-fly formatting. Chordie does not index songs against artists'/composers' will. To remove this song please click here.

Text color:
Chord color:
Chord grids: 
Font size:    
Page size: 

B5
Rate #1 of 2 versions

Jango Player

Login - add to songbook

SHARE PAGE  




You need to log in to post comments