Guitar Tabs, Chords and Lyrics
Server problems seems to be fixed. Chordie has been experiencing problems with songs disappearing. These issues now seems to be fixed, but still verifying the fix. If you find anything strange, please email admin@chordie.com.


Twisted Transistor  Korn

Twisted Transistor
Korn
www.travezalvarez.tk
Tuning: Drop C
E E E Q. E E Q E E S S E Q
 
 D||-------------------------|---------------------------||
 A||-------------------------|---------------------------||
 F||-------------------------|--------------------------*||
 C||-------------------------|--------------------------*||
 G||-----------5b------------|--5-----------------5b-----||
 C||--0--0--0----------0--0--|-------0--0--0-0-0---------||

E E E Q. E E Q E E S S E Q E E E Q. E E
 
 -------------------------|--------------------------|-------------------------|
 -------------------------|--------------------------|-------------------------|
 -----------7b------------|--7-----------------7b----|-----------7b------------|
 -------------------------|--------------------------|-------------------------|
 --0--0--0--5b------0--0--|--5----0--0--0-0-0--5b----|--0--0--0--5b------0--0--|
 --0--0--0----------0--0--|-------0--0--0-0-0--------|--0--0--0----------0--0--|

Q E E S S E Q E E E Q. E E Q E E S S E Q
 
 --------------------------|-------------------------|--------------------------|
 --------------------------|-------------------------|--------------------------|
 --7-----------------7b----|-------------------------|--------------------------|
 --------------------------|-------------------------|--------------------------|
 --5----0--0--0-0-0--5b----|-----------5b------------|--5-----------------5b----|
 -------0--0--0-0-0--------|--0--0--0----------0--0--|-------0--0--0-0-0--------|

E E E Q. E E E E E Q. E E Q E E S S E Q
 
 --------------------------|-------------------------|--------------------------|
 --------------------------|-------------------------|--------------------------|
 --------------------------|-------------------------|--------------------------|
 -----------0br------------|-----------0b------------|--0-----------------0b----|
 -----------5--------------|-----------5-------------|--5-----------------5-----|
 --0--0--0-----------0--0--|--0--0--0----------0--0--|-------0--0--0-0-0--------|

E E E Q. E E Q E E S S E Q E E E Q. E E
 
 -------------------------|--------------------------|-------------------------|
 -------------------------|--------------------------|-------------------------|
 -------------------------|--------------------------|-------------------------|
 -----------0b------------|--0-----------------0b----|-----------0b------------|
 -----------5-------------|--5-----------------5-----|-----------5-------------|
 --0--0--0----------0--0--|-------0--0--0-0-0--------|--0--0--0----------0--0--|

Q E E S S E Q E E Q E E Q E E Q E E Q
 
 --------------------------|------------------------|------------------------|
 --------------------------|------------------------|------------------------|
 --------------------------|------------------------|------------------------|
 --0-----------------0b----|------------------------|------------------------|
 --5-----------------5-----|--------3----------3----|--------5----------6----|
 -------0--0--0-0-0--------|-----x--3-------x--3----|-----x--5-------x--6----|

Q Q Q Q E E E E E E Q E E E E E E Q
 
 ----------------------|-------------------------|-------------------------|
 ----------------------|-------------------------|-------------------------|
 ----------------------|-------------------------|-------------------------|
 ----------------------|-----0-----1-----2-------|-----0-----1-----2-------|
 -------3---------3----|-------------------------|-------------------------|
 -------3---------3----|-----0-----1-----2-------|-----0-----1-----2-------|

E E E E E E Q E E E E E E Q E E E Q. E E
 
 -------------------------|-------------------------|--------------------------|
 -------------------------|-------------------------|-----------3br------------|
 -------------------------|-------------------------|--------------------------|
 -----0-----1-----2-------|-----0-----1-----2-------|-----------0br------------|
 -------------------------|-------------------------|--0--0--0-----------0--0--|
 -----0-----1-----2-------|-----0-----1-----2-------|--0--0--0-----------0--0--|

Q E E S S E Q E E E Q. E E
 
 --------------------------|--------------------------|
 --3-----------------3b----|-----------3br------------|
 --------------------------|--------------------------|
 --0-----------------0b----|-----------0br------------|
 -------0--0--0-0-0--------|--0--0--0-----------0--0--|
 -------0--0--0-0-0--------|--0--0--0-----------0--0--|

Q E E S S E Q E E E Q. E E
 
 --------------------------|--------------------------|
 --3-----------------3b----|-----------3br------------|
 --------------------------|--------------------------|
 --0-----------------0b----|-----------0br------------|
 -------0--0--0-0-0--------|--0--0--0-----------0--0--|
 -------0--0--0-0-0--------|--0--0--0-----------0--0--|

Q E E S S E Q E E E Q. E E
 
 --------------------------|--------------------------|
 --3-----------------3b----|-----------3br------------|
 --------------------------|--------------------------|
 --0-----------------0b----|-----------0br------------|
 -------0--0--0-0-0--------|--0--0--0-----------0--0--|
 -------0--0--0-0-0--------|--0--0--0-----------0--0--|

Q E E S S E Q E E E Q. E E
 
 --------------------------|--------------------------|
 --3-----------------3b----|--------------------------|
 --------------------------|--------------------------|
 --0-----------------0b----|-----------0br------------|
 -------0--0--0-0-0--------|--------------------------|
 -------0--0--0-0-0--------|--0--0--0-----------0--0--|

Q E E S S E Q E E E Q. E E
 
 --------------------------|--------------------------|
 --------------------------|--------------------------|
 --------------------------|--------------------------|
 --0-----------------0b----|-----------0br------------|
 --------------------------|--------------------------|
 -------0--0--0-0-0--------|--0--0--0-----------0--0--|

Q E E S S E Q E E E Q. E E
 
 --------------------------|--------------------------|
 --------------------------|--------------------------|
 --------------------------|--------------------------|
 --0-----------------0b----|-----------0br------------|
 --------------------------|--------------------------|
 -------0--0--0-0-0--------|--0--0--0-----------0--0--|

Q E E S S E Q E E E Q. E E
 
 --------------------------|--------------------------|
 --------------------------|--------------------------|
 --------------------------|--------------------------|
 --0-----------------0b----|-----------0br------------|
 --------------------------|--------------------------|
 -------0--0--0-0-0--------|--0--0--0-----------0--0--|

Q E E S S E Q E E Q E E Q E E Q E E Q
 
 --------------------------|------------------------|------------------------|
 --------------------------|------------------------|------------------------|
 --------------------------|------------------------|------------------------|
 --0-----------------0b----|--------0---------------|------------------------|
 --------------------------|-------------------6----|--------3----------3----|
 -------0--0--0-0-0--------|-----x--5-------x--6----|-----x--3-------x--3----|

E E Q E E Q Q Q Q Q E E E E E E Q
 
 ------------------------|----------------------|-------------------------|
 ------------------------|----------------------|-------------------------|
 ------------------------|----------------------|-------------------------|
 --------0---------------|----------------------|-----0-----1-----2-------|
 -------------------6----|-------3---------3----|-------------------------|
 -----x--5-------x--6----|-------3---------3----|-----0-----1-----2-------|

( Tab from: http://www.guitartabs.cc/tabs/k/korn/twisted_transistor_tab_ver_6.html )
E E E E E E Q E E E E E E Q E E E E E E Q
 
 -------------------------|-------------------------|-------------------------|
 -------------------------|-------------------------|-------------------------|
 -------------------------|-------------------------|-------------------------|
 -----0-----1-----2-------|-----0-----1-----2-------|-----0-----1-----2-------|
 -------------------------|-------------------------|-------------------------|
 -----0-----1-----2-------|-----0-----1-----2-------|-----0-----1-----2-------|

E E E Q. E E Q E E S S E Q
 
 --------------------------|--------------------------|
 -----------3br------------|--3-----------------3b----|
 --------------------------|--------------------------|
 -----------0br------------|--0-----------------0b----|
 --0--0--0-----------0--0--|-------0--0--0-0-0--------|
 --0--0--0-----------0--0--|-------0--0--0-0-0--------|

E E E Q. E E Q E E S S E Q
 
 --------------------------|--------------------------|
 -----------3br------------|--3-----------------3b----|
 --------------------------|--------------------------|
 -----------0br------------|--0-----------------0b----|
 --0--0--0-----------0--0--|-------0--0--0-0-0--------|
 --0--0--0-----------0--0--|-------0--0--0-0-0--------|

E E E Q. E E Q E E S S E Q
 
 --------------------------|--------------------------|
 -----------3br------------|--3-----------------3b----|
 --------------------------|--------------------------|
 -----------0br------------|--0-----------------0b----|
 --0--0--0-----------0--0--|-------0--0--0-0-0--------|
 --0--0--0-----------0--0--|-------0--0--0-0-0--------|

E E E Q. E E Q E E S S E Q
 
 --------------------------|--------------------------|
 -----------3br------------|--3-----------------3b----|
 --------------------------|--------------------------|
 -----------0br------------|--0-----------------0b----|
 --0--0--0-----------0--0--|-------0--0--0-0-0--------|
 --0--0--0-----------0--0--|-------0--0--0-0-0--------|

E E E E E E E E S S E S S E S S E Q
 
 --------------------------|----------------------------|
 --------------------------|----------------------------|
 -----2--2--2--2--------0--|----------------------------|
 -----0--0--0--0--6--6-----|----------------------------|
 -----------------4--4--3--|----------------------------|
 --------------------------|------0------1------2-------|

E E E E E E E E S S E S S E S S E Q
 
 --------------------------|----------------------------|
 --------------------------|----------------------------|
 -----2--2--2--2--------0--|----------------------------|
 -----0--0--0--0--6--6-----|----------------------------|
 -----------------4--4--3--|----------------------------|
 --------------------------|------0------1------2-------|

E E E E E E E E S S E S S E S S E Q
 
 --------------------------|----------------------------|
 --------------------------|----------------------------|
 -----2--2--2--2--------0--|----------------------------|
 -----0--0--0--0--6--6-----|----------------------------|
 -----------------4--4--3--|----------------------------|
 --------------------------|------0------1------2-------|

E E E E E E E E [/1]W W
 
 --------------------------|-------------------|-------------------|
 --------------------------|--3----------------|--L----------------|
 -----2--2--2--2--------0--|-------------------|-------------------|
 -----0--0--0--0--6--6-----|--x----------------|-------------------|
 -----------------4--4--3--|--5----------------|--L----------------|
 --------------------------|-------------------|-------------------|

W E E E E E E E E E E E E E E Q
 
 -------------------|--------8-----5--8-----5--|-----3-----1-----3-------|
 --L----------------|-----3--------------------|-------------------------|
 -------------------|--------------------------|-------------------------|
 -------------------|--------------------------|-------------------------|
 --L----------------|--------------------------|-------------------------|
 -------------------|--------------------------|-------------------------|

T T T T T T T T T T T T T T T T T T T T T T T T T T
 
 --22-22-22-22-22-22-22-22-22-22-22-22S-------------22-22-22-22-22-22-22-22-22-22
 --------------------------------------------------------------------------------
 ---------------------------------------19-19-19-19------------------------------
 --------------------------------------------------------------------------------
 --------------------------------------------------------------------------------
 --------------------------------------------------------------------------------

T T T T T T T T T T T T T T T T T T T T T T T T T T
 
 --22-22-22-22-22-22-22-22-22-22-22-22S-------------22-22-22-22-22-22-22-22-22-22
 --------------------------------------------------------------------------------
 ---------------------------------------19-19-19-19------------------------------
 --------------------------------------------------------------------------------
 --------------------------------------------------------------------------------
 --------------------------------------------------------------------------------

E E E E E E E E E E E E E E Q
 
 -------------------------------|----------------------------|
 --------------------13---------|----------------------------|
 ---------17-----14---------14--|-----12-----10-----12-------|
 -------------------------------|----------------------------|
 -----17------------------------|----------------------------|
 -------------------------------|----------------------------|

[E] [E] [E] [E] [E] [E] [E] [E]  
 
 -------------------|-------------------|--------8-----5--8-----5--|
 -------------------|-------------------|-----3--------------------|
 -------------------|-------------------|--------------------------|
 -------------------|-------------------|--------------------------|
 -------------------|-------------------|--------------------------|
 -------------------|-------------------|--------------------------|

E E E E E E Q
 
 -----3-----1-----3-------|
 -------------------------|
 -------------------------|
 -------------------------|
 -------------------------|
 -------------------------|

T T T T T T T T T T T T T T T T T T T T T T T T T T
 
 --22-22-22-22-22-22-22-22-22-22-22-22S-------------22-22-22-22-22-22-22-22-22-22
 --------------------------------------------------------------------------------
 ---------------------------------------19-19-19-19------------------------------
 --------------------------------------------------------------------------------
 --------------------------------------------------------------------------------
 --------------------------------------------------------------------------------

E E E Q. E E Q E E S S E Q
 
 -------------------|--------------------------|--------------------------|
 -------------------|-----------3br------------|--3-----------------3b----|
 -------------------|--------------------------|--------------------------|
 -------------------|-----------0br------------|--0-----------------0b----|
 -------------------|--0--0--0-----------0--0--|-------0--0--0-0-0--------|
 -------------------|--0--0--0-----------0--0--|-------0--0--0-0-0--------|

E E E Q. E E Q E E S S E Q
 
 --------------------------|--------------------------|
 -----------3br------------|--3-----------------3b----|
 --------------------------|--------------------------|
 -----------0br------------|--0-----------------0b----|
 --0--0--0-----------0--0--|-------0--0--0-0-0--------|
 --0--0--0-----------0--0--|-------0--0--0-0-0--------|

E E E Q. E E Q E E S S E Q
 
 --------------------------|--------------------------|
 -----------3br------------|--3-----------------3b----|
 --------------------------|--------------------------|
 -----------0br------------|--0-----------------0b----|
 --0--0--0-----------0--0--|-------0--0--0-0-0--------|
 --0--0--0-----------0--0--|-------0--0--0-0-0--------|

E E E Q. E E E H. E
 
 --------------------------|---------------------||
 -----------3br------------|--3------------------||
 --------------------------|---------------------||
 -----------0br------------|--0------------------||
 --0--0--0-----------0--0--|---------------------||
 --0--0--0-----------0--0--|---------------------||

Duration Legend
 
 ---------------

W - whole
H - half
Q - quarter
E - 8th
S - 16th
T - 32nd
X - 64th
. - note dotted
|-n-| - n-tuplets
Tablature Legend
 
 ----------------

L - tied note
x - dead note
g - grace note
(n) - ghost note
> - accentuded note
NH - natural harmonic
AH - artificial harmonic
TH - tapped harmonic
SH - semi harmonic
PH - pitch harmonic
h - hammer on
p - pull off
b - bend
br - bendRelease
pb - preBend
pbr - preBendRelease
brb - bendReleaseBend
\n/ - tremolo bar dip
\n - tremolo bar dive
-/n - tremolo bar Release up
/n\ - tremolo bar inverted dip
/n - tremolo bar return
-\n - tremolo bar Release down
S - shift slide
s - legato slide
/ - slide into from below or out of upwards
\ - slide into from above or out of downwards
~ - vibrato
W - wide vibrato
tr - trill
TP - tremolo picking
T - tapping
S - slap
P - pop
< - fade in
^ - brush up
v - brush down

Important: The song above is NOT stored on the Chordie server. The original song is hosted at www.guitartabs.cc. Chordie works as a search engine and provides on-the-fly formatting. Chordie does not index songs against artists'/composers' will. To remove this song please click here.

Text color:
Chord color:
Chord grids: 
Font size:    
Page size: 

E
Rate #1 of 2 versions

Login - add to songbook

SHARE PAGE  



You need to log in to post comments