Guitar Tabs, Chords and Lyrics
Server problems seems to be fixed. Chordie has been experiencing problems with songs disappearing. These issues now seems to be fixed, but still verifying the fix. If you find anything strange, please email admin@chordie.com.


Wake Up  Korn

Gtr I (A D G F A D) - 'Untitled'
Gtr II (A D G F A D) - 'Untitled'
Gtr III (A D G F A D) - 'Untitled'
Gtr IV (A D G F A D) - 'Untitled'
Introduction
Q=114
[B5C5A5B5A5B5C5A5B5A5B5B] [B5A5] [B5C5A5B5A5B5C5A5B5A5F5E5] [C] 
[4/4] Gtrs I, II[2/4]
S S S E S S S S E S S S S S S S S E S S S S E S E E H
 
 ||------------------------------|--------------------------||----------|
 ||o-----------------------------|-------------------------o||----------|
 ||------------------------------|--------------------------||----------|
 ||------------------------4-----|--------------------------||----------|
 ||o-4-5-2-4-2-4-5-2-4-2-4---4-2-|-4-5-2-4-2-4-5-2-4-2-3-2-o||----------|
 ||--2-3-0-2-0-2-3-0-2-0-2---2-0-|-2-3-0-2-0-2-3-0-2-0------||----------|

[4/4] S S S E S S S S E S S S S S S S S E S S S S E S E E 4x
 
 ||------------------------------|-----------------------------||
 ||o-----------------------------|----------------------------o||
 ||------------------------------|-----------------------------||
 ||------------------------4-----|-----------------------------||
 ||o-4-5-2-4-2-4-5-2-4-2-4---4-2-|-4-5-2-4-2-4-5-2-4-2-3-2----o||
 ||--2-3-0-2-0-2-3-0-2-0-2---2-0-|-2-3-0-2-0-2-3-0-2-0---------||

Q=108
[E5F] [E] [F] [E] [F] [E] [C] [C] [C5] [F] [E] [F] [E] [F] [E] [A5/EA5] 
[4/4] W Q. Q. Q
 
 ||-----------------------------|------------------------------|
 ||o----------------------------|------------------------------|
 ||-----------------------------|------------------------------|
 ||--9--------------------------|-5---------------4--------2---|
 ||o-9--------------------------|-5---------------4--------2---|
 ||--7--------------------------|-3---------------2--------0---|

|
| Gtr II
| S S S S S S Q E Q S S S S S S Q E Q
 
 ||-----------------------------|------------------------------|
 ||o----------------------------|----------------------0--(0)--|
 ||---------------------0--(0)--|------------------------------|
 ||--9-10-9-10-9-10-9--(9)S=4---|-9--10-9-10-9-10-9---(9)-13---|
 ||o----------------------------|------------------------------|
 ||-----------------------------|------------------------------|

[E5F]W [E] [F] [E] [F] [G#] [A] [C5]Q. [F] [E] [F] [E] [F] [E]Q. [C] [A5] Q
 
 |-----------------------------|--------------------------------||
 |-----------------------------|-------------------------------o||
 |-----------------------------|--------------------------------||
 |-9---------------------------|-5---------------4--------2-----||
 |-9---------------------------|-5---------------4--------2----o||
 |-7---------------------------|-3---------------2--------0-----||

|
| S S S S S S Q +E Q S S S S S S Q E Q
 
 |-----------------------------|--------------------------------||
 |-----------------------------|-------------------------------o||
 |-----------------------------|----------------------0--(0)----||
 |-9-10-9-10-9-10-13--(13)S14--|-9--10-9-10-9-10-9---(9)-13-----||
 |-----------------------------|-------------------------------o||
 |-----------------------------|--------------------------------||

Pre-verse
Wx4
 
 |--------|
 |--------|
 |--------|
 |--------|
 |--------|
 |--------|

Verse
[A]Gtr [A]III[A] [A] [A] [A] [G#] [G#] [G#] [G#] [G#G#]
E. E. E. E. E E E. E. E. E. E E
 
 ||--^7--7--7--7--7-7-|-^6--6--6--6--6-6-|
 ||o------------------|------------------|
 ||-------------------|------------------|
 ||-------------------|------------------|
 ||o------------------|------------------|
 ||-------------------|------------------|

[B] E. [B]E. [B]E. [B]E. [B]E [B]E [G#] E. [G#]E. [G#]E. [G#]E. [G#G#]E E 4x
 
 |-^7--7--7--7--7-7-|-^6--6--6--6--6-6--||
 |------------------|------------------o||
 |------------------|-------------------||
 |------------------|-------------------||
 |------------------|------------------o||
 |------------------|-------------------||

Pre-Chorus
Q=116
[B5C5A5B5A5B5C5A5B5A5B5B]Gtrs I, II[B5A5] [B5C5A5B5A5B5C5A5B5A5F5] [E5]
S S S E S S S S E S S S S S S S S E S S S S E S E E
 
 ||------------------------------|---------------------------||
 ||o-----------------------------|--------------------------o||
 ||------------------------------|---------------------------||
 ||------------------------4-----|---------------------------||
 ||o-4-5-2-4-2-4-5-2-4-2-4---4-2-|-4-5-2-4-2-4-5-2-4-2-10-9-o||
 ||--2-3-0-2-0-2-3-0-2-0-2---2-0-|-2-3-0-2-0-2-3-0-2-0--8-7--||

Chorus
Q=108
[E5F]Gtr I[E] [F] [E] [F] [E] [C] [C] [C5] [F] [E] [F] [E] [F] [E] [A5/EA5]
W Q. Q. Q
 
 ||-----------------------------|------------------------------|
 ||o----------------------------|------------------------------|
 ||-----------------------------|------------------------------|
 ||--9--------------------------|-5---------------4--------2---|
 ||o-9--------------------------|-5---------------4--------2---|
 ||--7--------------------------|-3---------------2--------0---|

|
| Gtr II
| S S S S S S Q E Q S S S S S S Q E Q
 
 ||-----------------------------|------------------------------|
 ||o----------------------------|----------------------0--(0)--|
 ||---------------------0--(0)--|------------------------------|
 ||--9-10-9-10-9-10-9--(9)S=4---|-9--10-9-10-9-10-9---(9)-13---|
 ||o----------------------------|------------------------------|
 ||-----------------------------|------------------------------|

[E5F]W [E] [F] [E] [F] [G#] [A] [C5]Q. [F] [E] [F] [E] [F] [E]Q. [C] [A5] Q
 
 |-----------------------------|---------------------------------||
 |-----------------------------|--------------------------------o||
 |-----------------------------|---------------------------------||
 |-9---------------------------|-5---------------4--------2------||
 |-9---------------------------|-5---------------4--------2-----o||
 |-7---------------------------|-3---------------2--------0------||

|
| S S S S S S Q +E Q S S S S S S Q E Q
 
 |-----------------------------|---------------------------------||
 |-----------------------------|--------------------------------o||
 |-----------------------------|----------------------0--(0)-----||
 |-9-10-9-10-9-10-13--(13)S14--|-9--10-9-10-9-10-9---(9)-13------||
 |-----------------------------|--------------------------------o||
 |-----------------------------|---------------------------------||

Pre-Verse
Wx2
 
 |--------|
 |--------|
 |--------|
 |--------|
 |--------|
 |--------|

Verse
[A]Gtr[A] II[A]I[A] [A] [A] [G#] [G#] [G#] [G#] [G#G#] [B] [B] [B] [B] [B] [B] [G#] [G#] [G#] [G#] [G#G#]
E. E. E. E. E E E. E. E. E. E E E. E. E. E. E E E. E. E. E. E E
 
 ||--7--7--7--7--7-7-|-6--6--6--6--6-6-|-7--7--7--7--7-7-|-6--6--6--6--6-6--||
 ||o-----------------|-----------------|-----------------|-----------------o||
 ||------------------|-----------------|-----------------|------------------||
 ||------------------|-----------------|-----------------|------------------||
 ||o-----------------|-----------------|-----------------|-----------------o||
 ||------------------|-----------------|-----------------|------------------||

Pre-Chorus
Q=116
[B5C5A5B5A5B5C5A5B5A5B5B]Gtrs I, II[B5A5] [B5C5A5B5A5B5C5A5B5A5F5] [E5]
S S S E S S S S E S S S S S S S S E S S S S E S E E
 
 |-----------------------------|---------------------------|
 |-----------------------------|---------------------------|
 |-----------------------------|---------------------------|
 |-----------------------4-----|---------------------------|
 |-4-5-2-4-2-4-5-2-4-2-4---4-2-|-4-5-2-4-2-4-5-2-4-2-10-9--|
 |-2-3-0-2-0-2-3-0-2-0-2---2-0-|-2-3-0-2-0-2-3-0-2-0--8-7--|

Chorus
Q=108
[E5F]Gtr I[E] [F] [E] [F] [E] [C] [C] [C5] [F] [E] [F] [E] [F] [E] [A5/EA5]
W Q. Q. Q
 
 ||-----------------------------|------------------------------|
 ||o----------------------------|------------------------------|
 ||-----------------------------|------------------------------|
 ||--9--------------------------|-5---------------4--------2---|
 ||o-9--------------------------|-5---------------4--------2---|
 ||--7--------------------------|-3---------------2--------0---|

|
| Gtr II
| S S S S S S Q E Q S S S S S S Q E Q
 
 ||-----------------------------|------------------------------|
 ||o----------------------------|----------------------0--(0)--|
 ||---------------------0--(0)--|------------------------------|
 ||--9-10-9-10-9-10-9--(9)S=4---|-9--10-9-10-9-10-9---(9)S13---|
 ||o----------------------------|------------------------------|
 ||-----------------------------|------------------------------|

[E]W [F] [E] [F] [E] [F] [G#] [A] [C5]Q. [F] [E] [F] [E] [F] [E]Q. [C] [A5] Q
 
 |-----------------------------|---------------------------------||
 |-----------------------------|--------------------------------o||
 |-----------------------------|---------------------------------||
 |-9---------------------------|-5---------------4--------2------||
 |-9---------------------------|-5---------------4--------2-----o||
 |-7---------------------------|-3---------------2--------0------||

|
| S S S S S S Q +E Q S S S S S S Q E Q
 
 |-----------------------------|---------------------------------||
 |-----------------------------|--------------------------------o||
 |-----------------------------|----------------------0--(0)-----||
 |-9-10-9-10-9-10-13--(13)S14--|-9--10-9-10-9-10-9---(9)S13------||
 |-----------------------------|--------------------------------o||
 |-----------------------------|---------------------------------||

Interlude
[B5]S [C5A5A5B5]S S S H. [B] [C] [G] [B5]S [C5A5B5]E S H.[B] [C] [G] [B]
 
 |------------------------|------------------------|
 |------------------------|------------------------|
 |------------------------|------------------------|
 |------------------------|------------------------|
 |-4--5-2-2-4-------------|-4--5-2-4---------------|
 |-2--3-0-0-2-------------|-2--3-0-2---------------|

|
| Q. E Q Q Q. E E E Q
 
 |--------------------17--|-----------------17-----|
 |-------------14-15------|-----------14-15----14--|
 |------------------------|------------------------|
 |------------------------|------------------------|
 |------------------------|------------------------|
 |------------------------|------------------------|

E [C5A5B5]S S H. [B] [C] [G] [B5]S [C5A5B5]E S H.[B] [C] [G] [B]
 
 |----------------------|-------------------------|
 |----------------------|-------------------------|
 |----------------------|-------------------------|
 |----------------------|-------------------------|
 |----5-2-4-------------|-4--5-2-4----------------|
 |----3-0-2-------------|-2--3-0-2----------------|

|
| Q. E Q Q Q. E E E Q
 
 |------------------17--|-----------------17------|
 |-----------14-15------|-----------14-15----14---|
 |----------------------|-------------------------|
 |----------------------|-------------------------|
 |----------------------|-------------------------|
 |----------------------|-------------------------|

E [C5A5B5]S S H. [B] [C] [G] [B5]S [C5A5A5B5]S S S H.[B] [C] [G] [B]
 
 |----------------------|--------------------------|
 |----------------------|--------------------------|
 |----------------------|--------------------------|
 |----------------------|--------------------------|
 |----5-2-4-------------|-4--5-2-2-4---------------|
 |----3-0-2-------------|-2--3-0-0-2---------------|

|
| Q. E Q Q Q. E E E Q
 
 |------------------17--|-------------------17-----|
 |-----------14-15------|-------------14-15----14--|
 |----------------------|--------------------------|
 |----------------------|--------------------------|
 |----------------------|--------------------------|
 |----------------------|--------------------------|

E [C5A5B5]S S H. [B] [C] [G] [B5]S [C5A5A5B5]S S S H.[B] [C] [G] [B]
 
 |----------------------|--------------------------|
 |----------------------|--------------------------|
 |----------------------|--------------------------|
 |----------------------|--------------------------|
 |----5-2-4-------------|-4--5-2-2-4---------------|
 |----3-0-2-------------|-2--3-0-0-2---------------|

|
| Q. E Q Q Q. E E E Q
 
 |------------------17--|-------------------17-----|
 |-----------14-15------|-------------14-15----14--|
 |----------------------|--------------------------|
 |----------------------|--------------------------|
 |----------------------|--------------------------|
 |----------------------|--------------------------|

Chorus
[E5F]Gtr I[E] [F] [E] [F] [E] [C] [C] [C5] [F] [E] [F] [E] [F] [E] [A5/EA5]
W Q. Q. Q
 
 ||-----------------------------|------------------------------|
 ||o----------------------------|------------------------------|
 ||-----------------------------|------------------------------|
 ||--9--------------------------|-5---------------4--------2---|
 ||o-9--------------------------|-5---------------4--------2---|
 ||--7--------------------------|-3---------------2--------0---|

|
| Gtr II
| S S S S S S Q E Q S S S S S S Q E Q
 
 ||-----------------------------|------------------------------|
 ||o----------------------------|----------------------0--(0)--|
 ||---------------------0--(0)--|------------------------------|
 ||--9-10-9-10-9-10-9--(9)S=4---|-9--10-9-10-9-10-9---(9)-13---|
 ||o----------------------------|------------------------------|
 ||-----------------------------|------------------------------|

Interlude/Outro Chorus
1. 2.
[E5F]W [E] [F] [E] [F] [G#] [A] [C5]Q. [F] [E] [F] [E] [F] [B5]Q. [C] [Fm/Ab] Q [A] W
 
 |-----------------------------|-------------------------------||--------|
 |-----------------------------|------------------------------o||--------|
 |-----------------------------|-------------------------------||--------|
 |-9---------------------------|-5---------------4--------2----||-(2)----|
 |-9---------------------------|-5---------------4--------2---o||-(2)----|
 |-7---------------------------|-3---------------2--------0----||-(0)----|

|
| S S S S S S Q +E Q S S S S S S Q E Q W
 
 |-----------------------------|-------------------------------||--------|
 |-----------------------------|------------------------------o||--------|
 |-----------------------------|----------------------0--(0)---||--------|
 |-9-10-9-10-9-10-13--(13)S14--|-9--10-9-10-9-10-9---(9)S13----||-14-----|
 |-----------------------------|------------------------------o||--------|
 |-----------------------------|-------------------------------||--------|

[C]Gtr I[C] [F/A] [F/A] [F/A] [F/A] [F/A] [Dm] [C#]
W Q. Q. Q
 
 ||-------------|----------------------------------|
 ||o------------|----------------------------------|
 ||-------------|----------------------------------|
 ||---9---------|--5---------------4-----------2---|
 ||o--9---------|--5---------------4-----------2---|
 ||---7---------|--3---------------2-----------0---|

|
| W S S E E E E E Q
 
 ||-------------|----------------------------------|
 ||o------------|----------------------------------|
 ||--(0)--------|-(0)-(0)-(0)-(0)-(0)-(0)-(0)-(0)--|
 ||--16---------|-16--14--14--14--14--14--19--18---|
 ||o------------|----------------------------------|
 ||-------------|----------------------------------|

[C] W [C] Q. [F/A] [F/A] [F/A] [F/A] Q. [F/A] [Dm] [C#] Q 3x
 
 |------------|------------------------------------||
 |------------|-----------------------------------o||
 |------------|------------------------------------||
 |--9---------|--5---------------4-----------2-----||
 |--9---------|--5---------------4-----------2----o||
 |--7---------|--3---------------2-----------0-----||

|
| W S S E E E E E Q 3x
 
 |------------|------------------------------------||
 |------------|-----------------------------------o||
 |-(0)--------|-(0)-(0)-(0)-(0)-(0)-(0)-(0)-(0)----||
 |-16---------|-16--14--14--14--14--14--19--18-----||
 |------------|-----------------------------------o||
 |------------|------------------------------------||
 --------------------------------------------------------------------------------

Duration Legend
 
 ---------------
 W - whole; H - half; Q - quarter; E - 8th; S - 16th; T - 32nd; X - 64th; a - acciaccatura

+ - note tied to previous; . - note dotted; .. - note double dotted
Uncapitalized letters represent notes that are staccato (1/2 duration)
Irregular groupings are notated above the duration line
Duration letters will always appear directly above the note/fret number it represents the
duration for. Duration letters with no fret number below them represent rests. Multi-
bar rests are notated in the form Wxn, where n is the number of bars to rest for. Low
melody durations appear below the staff
Tablature Legend
 
 ----------------

h - hammer-on
p - pull-off
b - bend
pb - pre-bend
r - bend release (if no number after the r, then release immediately)
/\ - slide into or out of (from/to "nowhere")
s - legato slide
S - shift slide
- natural harmonic
(n) - artificial harmonic
n(n) - tapped harmonic
~ - vibrato
tr - trill
T - tap
TP - trem. picking
PM - palm muting
\n/ - tremolo bar dip; n = amount to dip
\n - tremolo bar down
n/ - tremolo bar up
/n\ - tremolo bar inverted dip
= - hold bend; also acts as connecting device for hammers/pulls
- volume swell (louder/softer)
x - on rhythm slash represents muted slash
o - on rhythm slash represents single note slash
Misc Legend
 
 -----------

| - bar
|| - double bar
||o - repeat start
o|| - repeat end
*| - double bar (ending)
: - bar (freetime)
$ - Segno
& - Coda
Tempo markers - = BPM(8/16=s8/s16), where s8 = swing 8ths, s16 = swing 16ths

Important: The song above is NOT stored on the Chordie server. The original song is hosted at www.guitartabs.cc. Chordie works as a search engine and provides on-the-fly formatting. Chordie does not index songs against artists'/composers' will. To remove this song please click here.

Text color:
Chord color:
Chord grids: 
Font size:    
Page size: 

A A5 B B5 C C# C5 Dm E E5 F Fm/Ab G G#
Rate #0 of 1 versions

Jango Player

Login - add to songbook

SHARE PAGE  




You need to log in to post comments