Guitar Tabs, Chords and Lyrics
Update 25:10. 13:00. Site is back up running again. Songbooks are recovered. Woring on getting search back up..


Word Up!  Korn

Ill hope id help you guys!! :-) Gl & Hf
[E]You pretty ladies a[D]round the world
Got a [C]wierd thing to show [D]you so tell a[E]ll the boys and girls
Tell your brother, your sister and your [D]mama, too
we're a[C]bout to go [D]down and you [E]know just what to do
Wave your hands in the air like y[D]ou don't care
[C]Glide by the p[D]eople as they [E]start to look and stare
Do your dance, do your dance, d[D]o your dance quick, ma[C]ma
Come o[D]n baby, tell [E]me what's the word
Refrain:
[E]Now - word up,up ,up e[D]verybody say
When you h[C]ear the call you [D]got to g[E]et it underway
Word up, it's the [D]code word, no [C]matter where you [D]say it
You'll [E]know that you'll be heard
( Tab from: http://www.guitartabs.cc/tabs/k/korn/word_up_crd.html )
[E]Now all you sucker DJs who [D]think you're fly
There's [C]got to be a [D]reason and we [E]know the reason why
You try to put on those airs and a[D]ct real cool
But you [C]got to rea[D]lize that you're [E]acting like fools
If there's music we can use it, we`re [D]free to dance
[C]We don't have that[D] time for psycho[E]logical romance
No romance, no romance, [D]no romance for me, [C]mama
[D]Come on baby, tell me [E]what's the word
ReFrain:
[E]Now - word up,up,up [D]everybody say
When you [C]hear the call you [D]got to [E]get it underway
Word up, it's the [D]code word, no m[C]atter where you[D] say it
You'll [E]know that you'll be heard (3x)
"E"
 
 d||--------------------------------||
 a||--------------------------------||
 F||--------------------------------||
 C||--------------------------------||
 G||-1------------------------------||
 D||-2------------------------------||
 A||-2------------------------------||

or This "E"
 
 d||--------------------------------||
 a||--------------------------------||
 F||--------------------------------||
 C||--------------------------------||
 G||--------------------------------||
 D||-7------------------------------||
 A||-7------------------------------||

"D"
 
 d||-2------------------------------||
 a||-3------------------------------||
 F||-2------------------------------||
 C||--------------------------------||
 G||--------------------------------||
 D||--------------------------------||
 A||--------------------------------||

or This "D"
 
 d||--------------------------------||
 a||--------------------------------||
 F||--------------------------------||
 C||--------------------------------||
 G||--------------------------------||
 D||-5------------------------------||
 A||-5------------------------------||

"C"
 
 d||--------------------------------||
 a||-1------------------------------||
 F||--------------------------------||
 C||-2------------------------------||
 G||-3------------------------------||
 D||--------------------------------||
 A||--------------------------------||

or this "C"
 
 d||--------------------------------||
 a||--------------------------------||
 F||--------------------------------||
 C||--------------------------------||
 G||--------------------------------||
 D||-3------------------------------||
 A||-3------------------------------||


Important: The song above is NOT stored on the Chordie server. The original song is hosted at www.guitartabs.cc. Chordie works as a search engine and provides on-the-fly formatting. Chordie does not index songs against artists'/composers' will. To remove this song please click here.

Text color:
Chord color:
Chord grids: 
Font size:    
Page size: 

C D E
Rate #1 of 2 versions

Jango Player

Login - add to songbook

SHARE PAGE  



You need to log in to post comments