Guitar Tabs, Chords and Lyrics
Update 25:10. 13:00. Site is back up running again. Songbooks are recovered. Woring on getting search back up..


Bank Robber Man  Lenny Kravitz

Lenny kravitz
By: Luis Galicia.
17 march 03
Main Riff
Riff 1 Riff 1.1 Riff 1.2
 
 e--------------------------|----------------------|--------------------|
 B--------------------------|----------------------|--------------------|
 G--------------------------|----------------------|--------------------|
 D--------------------------|----------------------|--------------------|
 A--5--5\3--3/5--5--3--3--5-|-5\3--3/5--5--3--3--5-|-5\3--3/5--5--3--5--|
 E--3--0----1/3--3--1--1--3-|-0----1/3--3--1--1--3-|-0----1/3--3--1--3--|

Intro
Play one time the riff 1, then play 6 times the riff 1.1, and end whit riff 1.2.one time.
Little Solo
 
 e----------------------------|-----------------------------------|
 B---5bvvv??-4bvvv??3bvvv??4bvvv-|--5bvvv-??-5/ Slide down------------|
 G----------------------------|-----------------------------------|
 D----------------------------|-----------------------------------|
 A----------------------------|-----------------------------------|
 E----------------------------|-----------------------------------|

Play and repeat this and finish with this
Chords
[A] [C] [D] [D#] [E]  
 
 e-----------|-------------|-------------|-------------|-------------|
 B-----------|-------------|-------------|-------------|-------------|
 G-----------|-------------|-------------|-------------|-------------|
 D-----------|------5------|-----7-------|-----8-------|-----9-------|
 A----7------|------3------|-----5-------|-----6-------|-----7-------|
 E----5------|-------------|-------------|-------------|-------------|

This is a wonderful song.
Enjoy.
If you have any doubt e-mail me to: lenny_aw@hotmail.com

Important: The song above is NOT stored on the Chordie server. The original song is hosted at www.guitartabs.cc. Chordie works as a search engine and provides on-the-fly formatting. Chordie does not index songs against artists'/composers' will. To remove this song please click here.

Text color:
Chord color:
Chord grids: 
Font size:    
Page size: 

A C D D# E
Rate #1 of 4 versions

Login - add to songbook

SHARE PAGE  



You need to log in to post comments