Guitar Tabs, Chords and Lyrics
Update 25:10. 13:00. Site is back up running again. Songbooks are recovered. Woring on getting search back up..


Stillness of Heart  Lenny Kravitz

Hey Y??all!
I just took a version that was already here and corrected some mistakes.
The little riff in the beginning goes as follows:
 
 E|------------------------------
 h|------------------------------
 g|--5??5~--3---------------------
 D|-----------5---3/5------------
 A|------------------------------
 E|------------------------------

Verse chords, clean:
[Gm] [F] [Eb]  
 
 E|----3---------------------------1------------------------------6------
 B|----3---------------------------1------------------------------8------
 G|----3---------------------------2------------------------------8------
 D|----5---------------------------3------------------------------8------
 A|----5---------------------------3------------------------------6------
 E|----3---------------------------1------------------------------6------

[Gm]I'm out here on the street
[Gm]There's no one left to meet
[Gm]The things that were so sweet
[Gm]No longer move my feet
But I keep tryi[Cm]ng
I keep on try[Eb]ing
Chorus Chords, distortion and a little reverb:
[Bb] [F] [Cm] [Eb]  
 
 E|-----1-----------------1------------------3--------------------6------
 B|-----3-----------------1------------------4--------------------8------
 G|-----3-----------------2------------------5--------------------8------
 D|-----3-----------------3------------------5--------------------8------
 A|-----1-----------------3------------------3--------------------6------
 E|-----1-----------------1------------------3--------------------6------

[Bb] All that I wan[F]t
is stillness of h[Cm]eart
So I can st[Eb]art
[Bb] To find my wa[F]y
Out of the d[Cm]ark
And into your he[Eb]art
Bridge:
Where's the love[Cm]?
What is this world we live [Eb]in?
Where's the lov[Cm]e?
We've got to be more givi[Eb]ng
Where's the lov[Cm]e?
What happened to forgivi[Eb]ng?
Anyon[F]e?
Chorus a few times and fade.
The Chorus can be played with power chords aswell...
Hope y??all have fun with it!
Jake Starr alias Ole Schuller
Corrections to grease_is_the_world@gmx.net
Please!
P.S. The Solo is already posted here!!

Important: The song above is NOT stored on the Chordie server. The original song is hosted at www.guitartabs.cc. Chordie works as a search engine and provides on-the-fly formatting. Chordie does not index songs against artists'/composers' will. To remove this song please click here.

Text color:
Chord color:
Chord grids: 
Font size:    
Page size: 

Bb Cm Eb F Gm
Rate #1 of 21 versions

Login - add to songbook

SHARE PAGE  




You need to log in to post comments