Guitar Tabs, Chords and Lyrics
Server problems seems to be fixed. Chordie has been experiencing problems with songs disappearing. These issues now seems to be fixed, but still verifying the fix. If you find anything strange, please email admin@chordie.com.


Push Push  Kurt Nilsen

 
 -------------------------------------------------------------------------------

Push Push - Kurt Nilsen
 
 -------------------------------------------------------------------------------

Tabbed by: StianBa
Tuning: EADGBe
Intro
[Am] [C] [G] [F] 
 
 |-----------------|----------------|-------------------|--------------------|
 |-------------6/8-|-8-8------------|-------------------|--------------------|
 |-7/9-9-9p7h9-----|-----9-7h9p7----|-7h9p7-----------7-|-9p7----------------|
 |-----------------|-------------10-|-------10-7-10p7---|-----10-7-5h7-------|
 |-----------------|----------------|-------------------|--------------------|
 |-----------------|----------------|-------------------|--------------------|

[Am] [C] [G] [F] 
 
 |-----------------|----------------|-------------------|--------------------|
 |-------------6/8-|-8-8------------|-------------------|--------------------|
 |-7/9-9-9p7h9-----|-----9-7h9p7----|-7h9p7-----------7-|-9------------------|
 |-----------------|-------------10-|-------10-7-10p7---|---10p7-5-7-10p7----|
 |-----------------|----------------|-------------------|--------------------|
 |-----------------|----------------|-------------------|--------------------|

| / slide up
| \ slide down
| h hammer-on
| p pull-off
===============================================================================
[Am] You have been so goo[C]d for me
[G] I will change my way[F]s for you
[Am] You can call and I'l[C]l come running
[G] You know my feelings are war[F]m and true
[Am] You've got me wrapped aroun[C]d your finger
[G] I'd surrender it al[F]l to you
[Am] You got the power I've go[C]t the need
[G] I hate to say it I'm [F]down on my knees
-Chorus-
( Tab from: http://www.guitartabs.cc/tabs/k/kurt_nilsen/push_push_tab.html )
(so don't you)
[F] Push Push (You break me in your [G]stride)
[Am] Push Push (You'll cut me down to siz[F]e)
[F] Push Push (Please don't throw the [G]dice)
[Am] Push Push
[G] Push Push
[Am] [C] [G] [F] 
 
 |-----------------|----------------|-------------------|--------------------|
 |-------------6/8-|-8-8------------|-------------------|--------------------|
 |-7/9-9-9p7h9-----|-----9-7h9p7----|-7h9p7-----------7-|-9p7----------------|
 |-----------------|-------------10-|-------10-7-10p7---|-----10-7-5h7-------|
 |-----------------|----------------|-------------------|--------------------|
 |-----------------|----------------|-------------------|--------------------|

[Am] I'll be the angel, I'll b[C]e the saint
[G] I will walk a thi[F]n line for you
[Am] You pull my strings, I'll fee[C]l the strain
[G] Cut me loose, I will [F]break the chain
(so don't you)
[F] Push Push (You break me in your [G]stride)
[Am] Push Push (You'll cut me down to siz[F]e)
[F] Push Push (Please don't throw the [G]dice)
[Am] Push Push
[G] Though now I'm on your [F]side
Somet[F]imes you'll let me stay [Dm]away to be on my own
[G] I brace myself to meet your nee[Dm]ds
But I'[F]m still on your side
(Intro)
(Baby don't you)
[F] Push Push (You break me in your [G]stride)
[Am] Push Push (You'll cut me down to siz[F]e)
[F] Push Push (Please don't throw the [G]dice)
[Am] Push Push (You know I'm on your sid[F]e)
[F] Push Push (You break me in your [G]stride)
[Am] Push Push (You'll cut me down to siz[F]e)
[F] Push Push (Please don't throw the [G]dice)
[Am] Push Push (You know I'm on your sid[F]e)
F C~

Important: The song above is NOT stored on the Chordie server. The original song is hosted at www.guitartabs.cc. Chordie works as a search engine and provides on-the-fly formatting. Chordie does not index songs against artists'/composers' will. To remove this song please click here.

Text color:
Chord color:
Chord grids: 
Font size:    
Page size: 

Am C Dm F G
Rate #1 of 5 versions

Jango Player

Login - add to songbook

SHARE PAGE  



You need to log in to post comments