Guitar Tabs, Chords and Lyrics
Major upgrade!! After one year development the new version of Chordie is now online! Please give feedback.


Molten Universe   Kyuss

 
 |----------------------------------------------------|
 |----------------------------------------------------|
 |----------------------------------------------------|
 |-----------5-----------5----------------------------|
 |---7-----7-----7-----7-----7-5^-----7-------7^^^^^^-|
 |-0---5-0-----0---5-0-----0------5-5---5-6-6---------|

 


 [ Tab from: bttp://www.guitartabs.cc/tabs/k/kyuss/molten_universe_tab.btml ] 


 [Fill 1] 


 

 
 |----------------------------------------------------|
 |----------------------------------------------------|
 |----------------------------------------------------|
 |----------------------------------------------------|
 |---7-----7-----7-----7-----7-5^-----7-------7^^^^^^-|
 |-0---5-0---5-0---5-0---5-0------5-5---5-6-6---------|

 


 


 [Riff 3] 


 

 
 |----------------------------------------------------|
 |----------------------------------------------------|
 |----------------------------------------------------|
 |----------------------------------------------------|
 |-2-2--2-2--2-2--2-2--2--2--7-7--7-7--8-8--8-8-8-8-8-|
 |-0-0--0-0--0-0--0-0--0--0--5-5--5-5--6-6--6-6-6-6-6-|

 


 


 [Fill 2] 


 

 
 |--------------------|
 |--------------------|
 |--------------------|
 |--------------------|
 |-2-2--2-2--2-2--2-2-|
 |-0-0--0-0--0-0--0-0-|

 


 


 Progression


 

 
 -------------


Important: The song above is NOT stored on the Chordie server. The original song is hosted at www.guitartabs.cc. Chordie works as a search engine and provides on-the-fly formatting. Chordie does not index songs against artists'/composers' will. To remove this song please click here.

This song is displayed as text-only. Transposing and tuning is only available for chordpro-songs.
Rate #1 of 2 versions

Login - add to songbook

SHARE PAGE  




You need to log in to post comments