Guitar Tabs, Chords and Lyrics
Major upgrade!! After one year development the new version of Chordie is now online! Please give feedback.


Size Queen   Kyuss

 
 G[--------------------------------]
 D[--------------------------------]
 A[--------66----------------------]
 E[88--66------443-33-3423---------] x3
 G[--------------------------------]
 D[-----------------------55-54----]
 A[--------66-------------------6--]
 E[88--66------443-33-342---------8]


Important: The song above is NOT stored on the Chordie server. The original song is hosted at www.guitartabs.cc. Chordie works as a search engine and provides on-the-fly formatting. Chordie does not index songs against artists'/composers' will. To remove this song please click here.

This song is displayed as text-only. Transposing and tuning is only available for chordpro-songs.
Rate #1 of 1 versions

Jango Player

Login - add to songbook

SHARE PAGE  




You need to log in to post comments