Guitar Tabs, Chords and Lyrics
Server problems seems to be fixed. Chordie has been experiencing problems with songs disappearing. These issues now seems to be fixed, but still verifying the fix. If you find anything strange, please email admin@chordie.com.


Al final  La Ley

hope you use it well
 
 *---------------*

| /:slide |
| ~:vibrato |
| h:hammer on |
| p:pull of |
 
 *---------------*

*Intro:
0:00
 
 E|----------3--------------------------------6-6h8-11/6~-----------------------------|
 B|-4--6---4---------------------------6-6/8~--------------8/4---6h8----3/2/3/2/3/2/3-|
 G|-5----3-----13/3/5-5--4/0---3h5~--8-------------------------8------7---------------|
 D|-5------------------------6--------------------------------------------------------|
 A|-----------------------------------------------------------------------------------|
 E|-----------------------------------------------------------------------------------|

0:27 (En esta parte entran las dos guitarras)
 
 E|-------------1---3--------------1----------------|
 B|--------4---3---4--------------3------4-----4--4-|
 G|-------5---3---3--------------3------5-----5-----|
 D|------5-----------------------------5-----5------|
 A|-------------------------------------------------|
 E|-------------------------------------------------|

| |
 
 E|-------------------------------------------------|
 B|----------------------------------------3---4--4-|
 G|-------------------5-5/7/3-3---------------5-----|
 D|------------------------------------------5------|
 A|------------------------------6/3-3--------------|
 E|-3/0---------------------------------------------|

1:37 | 2:19 | 2:31 | 2:38 |
 
 E|---------|-------------------------|-------------|--3---|
 B|---3-4~~-|-------------------------|---3-4~~-6-3-|----4-|
 G|-5-------|-------5-7/5-------------|-5-----------|------|
 D|---------|-8/6-8-------8/6---------|-------------|------|
 A|---------|------------------5/3-3~-|-------------|------|
 E|---------|-------------------------|-------------|------|

3:41 Cm Bb G Bb G
 
 E|--------------------------------------------3---|------|--1-----3--|
 B|-----4-----4-----4-------4-----3-----3----3---3-|------|--3-----3--|
 G|-------5-----------5---5---------3--------------|:x2---|--3-----4--|
 D|---5-----5-----5-----5-------3-----3------------|------|--3-----5--|
 A|-3-----------3-------------1--------------------|------|--1-----5--|
 E|---------------------------------------3--------|------|--1-----3--|

Intro:
[Cm] [Bb] [D#] [Bb] [Cm] [Bb] [Cm]  
[Cm] Cuántas veces inten[Bb]té al[G]ejarme de tu[Cm] red
muchas más de las que[Bb] yo recuerdo[G]
[Cm] blanco viste tu obsesi[Bb]ón negro [G]es tu coraz[Cm]ón
encadenas mi absol[Bb]uta libertad[G]
[Cm]  
[Cm] Me envenenas de plac[Bb]er diluy[G]endo tu traici[Cm]ón
y me creo fuera [Bb]de peligro[G]
[Cm] tengo ganas de vi[Bb]vir luego m[G]e quiero mor[Cm]ir
mi equilibrio tambal[Bb]ea en un cir[G]co fatal
[Cm]  
Porque [D#]al.........[Bb]al final el dol[F]or será vi[C]tal
[C]porq[D]ue [D#]al.........[Bb]al final el dol[F]or será vi[C]talidad
[Cm] [Bb] [D#] [Bb] [Cm]  
[Cm] A mi lado siempre est[Bb]ás acec[G]hando mi aflicc[Cm]ión
lista para atorment[Bb]ar mi calma[G]
[Cm] me desvías cuando [Bb]voy al enc[G]uentro con mi [Cm]ser
y otra vez destruyes [Bb]la esperanza d[G]e llegar
[Bb]de salvarme y e[G]scapar
[Cm]  
porque [D#]al.........[Bb]al final el dol[F]or será vi[C]tal
[C]porq[D]ue [D#]al.........[Bb]al final el dol[F]or será vi[C]talidad
Ab Bb C (x4)
[Cm] condenaste mi exis[Bb]tir reclu[G]ido en la ciud[Cm]ad
venerándote c[Bb]omo un pagan[G]o
[Bb]sepultado s[G]in soñar
porque [D#]al.........[Bb]al final el dol[F]or será vi[C]tal
[C]porq[D]ue [D#]al.........[Bb]al final el dol[F]or será vi[C]tal
[C]porq[D]ue [D#]al.........[Bb]al final el dol[F]or será vi[C]talidad
Ab Bb C (x4)
chords:
-Cm: 335543
-Bb: 113331 ó 688766
-D#: 365343 ó 668886
-Ab: 466544
-C : x32010 ó 81010988
-F : 133211
-G : 320033 ó 355433

Important: The song above is NOT stored on the Chordie server. The original song is hosted at www.guitartabs.cc. Chordie works as a search engine and provides on-the-fly formatting. Chordie does not index songs against artists'/composers' will. To remove this song please click here.

Text color:
Chord color:
Chord grids: 
Font size:    
Page size: 

Bb C Cm D D# F G
Rate #1 of 4 versions

Jango Player

Login - add to songbook

SHARE PAGE  



You need to log in to post comments