Guitar Tabs, Chords and Lyrics
Server problems seems to be fixed. Chordie has been experiencing problems with songs disappearing. These issues now seems to be fixed, but still verifying the fix. If you find anything strange, please email admin@chordie.com.


Alleine zu zweit  Lacrimosa

Alleine zu zweit
Drumkit
W W W
 
 C||-------------------|-------------------|-------------------|
 C||-------------------|-------------------|-------------------|
 C||-------------------|-------------------|-------------------|
 C||-------------------|-------------------|-------------------|
 C||-------------------|-------------------|-------------------|
 C||-------------------|-------------------|-------------------|
 C||-------------------|-------------------|-------------------|

W W W W
 
 -------------------|-------------------|-------------------|-------------------|
 -------------------|-------------------|-------------------|-------------------|
 -------------------|-------------------|-------------------|-------------------|
 -------------------|-------------------|-------------------|-------------------|
 -------------------|-------------------|-------------------|-------------------|
 -------------------|-------------------|-------------------|-------------------|
 -------------------|-------------------|-------------------|-------------------|

W W W W
 
 -------------------|-------------------|-------------------|-------------------|
 -------------------|-------------------|-------------------|-------------------|
 -------------------|-------------------|-------------------|-------------------|
 -------------------|-------------------|-------------------|-------------------|
 -------------------|-------------------|-------------------|-------------------|
 -------------------|-------------------|-------------------|-------------------|
 -------------------|-------------------|-------------------|-------------------|

W W W W
 
 -------------------|-------------------|-------------------|-------------------|
 -------------------|-------------------|-------------------|-------------------|
 -------------------|-------------------|-------------------|-------------------|
 -------------------|-------------------|-------------------|-------------------|
 -------------------|-------------------|-------------------|-------------------|
 -------------------|-------------------|-------------------|-------------------|
 -------------------|-------------------|-------------------|-------------------|

W W W W
 
 -------------------|-------------------|-------------------|-------------------|
 -------------------|-------------------|-------------------|-------------------|
 -------------------|-------------------|-------------------|-------------------|
 -------------------|-------------------|-------------------|-------------------|
 -------------------|-------------------|-------------------|-------------------|
 -------------------|-------------------|-------------------|-------------------|
 -------------------|-------------------|-------------------|-------------------|

W W W W
 
 -------------------|-------------------|-------------------|-------------------|
 -------------------|-------------------|-------------------|-------------------|
 -------------------|-------------------|-------------------|-------------------|
 -------------------|-------------------|-------------------|-------------------|
 -------------------|-------------------|-------------------|-------------------|
 -------------------|-------------------|-------------------|-------------------|
 -------------------|-------------------|-------------------|-------------------|

S S S S E S S S S E E S S Q Q Q Q
 
 --------------------------------------------|--------------------------|
 --------------------------------------------|--------------------------|
 --------------------------------------------|--------------------------|
 --------------------------------------------|--57----------------------|
 -----38-38-38-38-----38-38-38-38--38--38-38-|--49----------------------|
 --35-35-35-35-35--35-35-35-35-35--35--35-35-|--35----35----35----35----|
 --------------------------------------------|--------------------------|

Q Q Q Q Q Q Q Q
 
 --------------------------|--------------------------|
 --------------------------|--------------------------|
 --------------------------|--------------------------|
 --------------------------|--------------------------|
 --------------------------|--------------------------|
 --35----35----35----35----|--35----35----35----35----|
 --------------------------|--------------------------|

E E S S E E S S E E Q Q Q Q
 
 -------------------------------------|--------------------------|
 -------------------------------------|--------------------------|
 -------------------------------------|--------------------------|
 ------38-----38----38-----38-38--38--|--49----------------------|
 ------47-----45----43-----41-41--41--|--57----46----46----46----|
 --35--35--35-35----35--35-35-35--35--|--35----38----35----38----|
 -------------------------------------|--------------------------|

Q Q Q Q Q Q Q Q
 
 --------------------------|--------------------------|
 --------------------------|--------------------------|
 --------------------------|--------------------------|
 --------------------------|--------------------------|
 --46----46----46----46----|--46----46----46----46----|
 --35----38----35----38----|--35----38----35----38----|
 --------------------------|--------------------------|

E S S S S S S S S E S S E
 
 --------------------------------------------|
 --------------------------------------------|
 --------------------------------------------|
 --38------------------------------38-38-----|
 --41--38-38-38----38-38-38----38--41-43-38--|
 --35--41-43-45-35-41-45-43-35-41--35-35-45--|
 --------------------------------------------|

E E E S S E T S. E E E E E S S E E E E
 
 -------------------------------------|-----------------------------------|
 -------------------------------------|-----------------------------------|
 -------------------------------------|-----------------------------------|
 --46---------------------------------|-----------------------------------|
 --35------38-------35--------38------|--35------38-------35------38------|
 --57--35--46----35-46--35----46--35--|--46--35--46----35-46--35--46--35--|
 -------------------------------------|-----------------------------------|

E E E S S E E E E E E E S S E E E E
 
 -----------------------------------|-----------------------------------|
 -----------------------------------|-----------------------------------|
 -----------------------------------|-----------------------------------|
 -----------------------------------|-----------------------------------|
 --35------46-------35------38------|--35------46-------35------38------|
 --46--35--38----35-46--35--46--35--|--46--35--38----35-46--35--46--35--|
 -----------------------------------|-----------------------------------|

E E E S S E S S E S S E E E S S E T S. E E
 
 --------------------------------------|-------------------------------------|
 --------------------------------------|-------------------------------------|
 --------------------------------------|-------------------------------------|
 --------------------------------------|--46---------------------------------|
 --35------46-------35-------38--------|--35------38-------35--------38------|
 --46--35--38----35-46--38---46--38-38-|--57--35--46----35-46--35----46--35--|
 --------------------------------------|-------------------------------------|

E E E S S E E E E E E E S S E E E E
 
 -----------------------------------|-----------------------------------|
 -----------------------------------|-----------------------------------|
 -----------------------------------|-----------------------------------|
 -----------------------------------|-----------------------------------|
 --35------38-------35------38------|--35------46-------35------38------|
 --46--35--46----35-46--35--46--35--|--46--35--38----35-46--35--46--35--|
 -----------------------------------|-----------------------------------|

E E E S S E E E E E E E E E E E E
 
 -----------------------------------|---------------------------------|
 -----------------------------------|---------------------------------|
 -----------------------------------|---------------------------------|
 -----------------------------------|---------------------------------|
 --35------46-------35------38------|--35------46------38------38-----|
 --46--35--38----35-46--35--46--35--|--46--35--38--35--46--35--46-----|
 -----------------------------------|---------------------------------|

E Q. E Q. E E E E E Q.
 
 ------------------------|----------------------------|
 ------------------------|----------------------------|
 ------------------------|----------------------------|
 ------------------------|----------------------------|
 --57--------------------|------57--------------------|
 --35---------38---------|--38--35-----35--38---------|
 ------------------------|----------------------------|

E Q E E Q E E Q E E Q E
 
 ----------------------------|----------------------------|
 ----------------------------|----------------------------|
 ----------------------------|----------------------------|
 --49------------------------|----------------------------|
 --57------------------------|--57------------------------|
 --35-------35--38-------35--|--35-------35--38-------35--|
 ----------------------------|----------------------------|

E E E Q E E S S E Q. E Q S S
 
 --------------------------------|----------------------------|
 --------------------------------|----------------------------|
 --------------------------------|----------------------------|
 --------------------------------|--35------------------------|
 --57-----45---------------------|--57---------46-------------|
 --35-----47-------43--43--43-41-|--46---------38-------35-35-|
 --------------------------------|----------------------------|

E E E E E Q E E Q E E Q E
 
 ------------------------------|----------------------------|
 ------------------------------|----------------------------|
 ------------------------------|----------------------------|
 --35-------------57-----------|--57------------------------|
 --57-------------35-----------|--35-----------38-----------|
 --46--35-----35--46-------35--|--46-------35--46-------35--|
 ------------------------------|----------------------------|

E E E E E E E E E Q S S E Q S S
 
 --------------------------------|-------------------------------|
 --------------------------------|-------------------------------|
 --------------------------------|-------------------------------|
 --------------------------------|--57---------------------------|
 --------------------------------|--35------------38-------------|
 --38--38--35--38-----38-----38--|--46-------35---46-------45-43-|
 --------------------------------|-------------------------------|

E Q E E Q E E Q E E E E S S
 
 ----------------------------|---------------------------------|
 ----------------------------|---------------------------------|
 --57------------------------|---------------------------------|
 --41------------------------|---------------------------------|
 --35-----------38-----------|--35-----------38----------------|
 --46-------35--46-------35--|--46-------35--46--47--45--43-41-|
 ----------------------------|---------------------------------|

E Q. E Q S S E E E E E Q E
 
 ----------------------------|------------------------------|
 ----------------------------|------------------------------|
 ----------------------------|------------------------------|
 --35------------------------|------------------------------|
 --57---------46-------------|--35-------------38-----------|
 --46---------38-------35-35-|--46--35-----35--46-------35--|
 ----------------------------|------------------------------|

E Q E E Q S S E E E E E Q E
 
 ------------------------------|------------------------------|
 ------------------------------|------------------------------|
 ------------------------------|------------------------------|
 ------------------------------|--35--------------------------|
 --35-----------38-------------|--57-------------46-----------|
 --46-------35--46-------35-35-|--46--35-----35--38-------35--|
 ------------------------------|------------------------------|

E Q E E E E S S E Q. E Q S S
 
 ---------------------------------|----------------------------|
 ---------------------------------|----------------------------|
 ---------------------------------|----------------------------|
 ---------------------------------|--35------------------------|
 --46-----------38----------------|--57---------46-------------|
 --35-------35--46--47--45--43-41-|--46---------38-------35-35-|
 ---------------------------------|----------------------------|

E E E E E Q E E Q E E Q E
 
 ------------------------------|----------------------------|
 ------------------------------|----------------------------|
 ------------------------------|----------------------------|
 --35-------------57-----------|--57------------------------|
 --57-------------38-----------|--35-----------38-----------|
 --46--35-----35--46-------35--|--46-------35--46-------35--|
 ------------------------------|----------------------------|

E Q S S E Q S S E S S S S S S S S S S S S S S
 
 ------------------------------|---------------------------------------------|
 ------------------------------|---------------------------------------------|
 ------------------------------|---------------------------------------------|
 --35--------------------------|---------------------------------------------|
 --57------------38------------|--35-----------------------------------------|
 --46-------35---46-------35---|--47--47-47-47---45-45-43---45-43-43---41-41-|
 ------------------------------|---------------------------------------------|

S E. S E. S E. S S S S S E. S E. S S S S S S S S
 
 ----------------------------------|--------------------------------------|
 ----------------------------------|--------------------------------------|
 ----------------------------------|--------------------------------------|
 ----------------------------------|--------------------------------------|
 ----------------------------------|--------------------------------------|
 --35-----35-----35-----35---45-43-|--35-----35-----35---45-45-35---43-41-|
 ----------------------------------|--------------------------------------|

E S S E S S E S S E S S E E S S E E S S E E
 
 -----------------------------------------|-------------------------------------|
 -----------------------------------------|-------------------------------------|
 -----------------------------------------|-------------------------------------|
 -----------------------------------------|-------------------------------------|
 ------------47-------45--------45--------|------47-----45----43-----41-41--41--|
 --35--47-47-35--47---35--45-45-35--45-43-|--35--35--35-35----35--35-35-35--35--|
 -----------------------------------------|-------------------------------------|

Q Q Q Q Q Q Q Q
 
 --------------------------|--------------------------|
 --------------------------|--------------------------|
 --------------------------|--------------------------|
 --49----------------------|--------------------------|
 --57----46----46----46----|--46----46----46----46----|
 --35----38----35----38----|--35----38----35----38----|
 --------------------------|--------------------------|

Q Q Q Q E S S S S S S S S E S S E
 
 --------------------------|--------------------------------------------|
 --------------------------|--------------------------------------------|
 --------------------------|--------------------------------------------|
 --------------------------|--38------------------------------38-38-----|
 --46----46----46----46----|--41--38-38-38----38-38-38----38--41-43-38--|
 --35----38----35----38----|--35--41-43-45-35-41-45-43-35-41--35-35-45--|
 --------------------------|--------------------------------------------|

E E E S S E T S. E E E E E S S E E E E
 
 -------------------------------------|-----------------------------------|
 -------------------------------------|-----------------------------------|
 -------------------------------------|-----------------------------------|
 --46---------------------------------|-----------------------------------|
 --35------38-------35--------38------|--35------38-------35------38------|
 --57--35--46----35-46--35----46--35--|--46--35--46----35-46--35--46--35--|
 -------------------------------------|-----------------------------------|

E E E S S E E E E E E E S S E E E E
 
 -----------------------------------|-----------------------------------|
 -----------------------------------|-----------------------------------|
 -----------------------------------|-----------------------------------|
 -----------------------------------|-----------------------------------|
 --35------46-------35------38------|--35------46-------35------38------|
 --46--35--38----35-46--35--46--35--|--46--35--38----35-46--35--46--35--|
 -----------------------------------|-----------------------------------|

E E E S S E S S E S S E E E S S E T S. E E
 
 --------------------------------------|-------------------------------------|
 --------------------------------------|-------------------------------------|
 --------------------------------------|-------------------------------------|
 --------------------------------------|--46---------------------------------|
 --35------46-------35-------38--------|--35------38-------35--------38------|
 --46--35--38----35-46--38---46--38-38-|--57--35--46----35-46--35----46--35--|
 --------------------------------------|-------------------------------------|

E E E S S E E E E E E E S S E E E E
 
 -----------------------------------|-----------------------------------|
 -----------------------------------|-----------------------------------|
 -----------------------------------|-----------------------------------|
 -----------------------------------|-----------------------------------|
 --35------38-------35------38------|--35------46-------35------38------|
 --46--35--46----35-46--35--46--35--|--46--35--38----35-46--35--46--35--|
 -----------------------------------|-----------------------------------|

E E E S S E E E E E E E E E E E E
 
 -----------------------------------|----------------------------------|
 -----------------------------------|----------------------------------|
 -----------------------------------|----------------------------------|
 -----------------------------------|----------------------------------|
 --35------46-------35------38------|--35------46------38------38------|
 --46--35--38----35-46--35--46--35--|--46--35--38--35--46--35--46--35--|
 -----------------------------------|----------------------------------|

E H. E W W
 
 ----------------------|-------------------|-------------------|
 ----------------------|-------------------|-------------------|
 ----------------------|-------------------|-------------------|
 --49------------------|-------------------|-------------------|
 --35------------------|-------------------|-------------------|
 --57------------------|-------------------|-------------------|
 ----------------------|-------------------|-------------------|

W W E E E E E E E E
 
 -------------------|-------------------|------------------------------|
 -------------------|-------------------|------------------------------|
 -------------------|-------------------|------------------------------|
 -------------------|-------------------|------------------------------|
 -------------------|-------------------|------------------------------|
 -------------------|-------------------|--35-----35-----35-----35-----|
 -------------------|-------------------|------------------------------|

[E] [E] [E] [E] [E] [E] [E] [E] [E] [E] [E] [E] [E] [E] [E] [E]  
 
 ------------------------------|------------------------------|
 ------------------------------|------------------------------|
 ------------------------------|------------------------------|
 ------------------------------|------------------------------|
 ------------------------------|--35-----46-----46-----46-----|
 --35-----35-----35-----35-----|--46-----38-----35-----38-----|
 ------------------------------|------------------------------|

E E S S S S S S S S S S S S
 
 --------------------------------------------|
 --------------------------------------------|
 --------------------------------------------|
 --------------------------------------------|
 --------------------------------------------|
 --38--38--38-38-35-38-38-35-35---38---38-38-|
 --------------------------------------------|

S S S S S S S S S S S S S S S S
 
 -------------------------------------------------|
 -------------------------------------------------|
 -------------------------------------------------|
 -------------------------------------------------|
 -------------------------------------------------|
 --35---38-38-38-38-38-38-38-38-38-38-38-38-38-38-|
 -------------------------------------------------|

E E E S S E T S. E E E E E S S E E E E
 
 -------------------------------------|-----------------------------------|
 -------------------------------------|-----------------------------------|
 -------------------------------------|-----------------------------------|
 --46---------------------------------|-----------------------------------|
 --35------38-------35--------38------|--35------38-------35------38------|
 --57--35--46----35-46--35----46--35--|--46--35--46----35-46--35--46--35--|
 -------------------------------------|-----------------------------------|

E E E S S E E E E E E E S S E E E E
 
 -----------------------------------|-----------------------------------|
 -----------------------------------|-----------------------------------|
 -----------------------------------|-----------------------------------|
 -----------------------------------|-----------------------------------|
 --35------46-------35------38------|--35------46-------35------38------|
 --46--35--38----35-46--35--46--35--|--46--35--38----35-46--35--46--35--|
 -----------------------------------|-----------------------------------|

E E E S S E S S E S S E E E S S E T S. E E
 
 --------------------------------------|-------------------------------------|
 --------------------------------------|-------------------------------------|
 --------------------------------------|-------------------------------------|
 --------------------------------------|--35---------------------------------|
 --35------46-------35-------38--------|--57------38-------35--------38------|
 --46--35--38----35-46--38---46--38-38-|--46--35--46----35-46--35----46--35--|
 --------------------------------------|-------------------------------------|

E E E S S E E E E E E E S S E E E E
 
 -----------------------------------|-----------------------------------|
 -----------------------------------|-----------------------------------|
 -----------------------------------|-----------------------------------|
 -----------------------------------|-----------------------------------|
 --35------38-------35------46------|--46------38-------46------46------|
 --46--35--46----35-46--35--38--35--|--35--35--46----35-35--35--38--35--|
 -----------------------------------|-----------------------------------|

E E S S S S S S S S S S S S
 
 --------------------------------------------|
 --------------------------------------------|
 --------------------------------------------|
 --------------------------------------------|
 --------------------------------------------|
 --38--38--38-38-35-38-38-35-35---38---38-38-|
 --------------------------------------------|

S S S S S S S S S S S S S S S S
 
 -------------------------------------------------|
 -------------------------------------------------|
 -------------------------------------------------|
 -------------------------------------------------|
 -------------------------------------------------|
 --35---38-38-38-38-38-38-47-47-45-45-43-43-41-41-|
 -------------------------------------------------|

E E E S S E T S. E E E E E S S E E E E
 
 -------------------------------------|-----------------------------------|
 -------------------------------------|-----------------------------------|
 -------------------------------------|-----------------------------------|
 --46---------------------------------|-----------------------------------|
 --35------38-------35--------38------|--35------38-------35------38------|
 --57--35--46----35-46--35----46--35--|--46--35--46----35-46--35--46--35--|
 -------------------------------------|-----------------------------------|

E E E S S E E E E E E E S S E E E E
 
 -----------------------------------|-----------------------------------|
 -----------------------------------|-----------------------------------|
 -----------------------------------|-----------------------------------|
 -----------------------------------|-----------------------------------|
 --35------46-------35------38------|--35------46-------35------38------|
 --46--35--38----35-46--35--46--35--|--46--35--38----35-46--35--46--35--|
 -----------------------------------|-----------------------------------|

E E E S S E S S E S S E E E S S E T S. E E
 
 --------------------------------------|-------------------------------------|
 --------------------------------------|-------------------------------------|
 --------------------------------------|-------------------------------------|
 --------------------------------------|--35---------------------------------|
 --35------46-------35-------38--------|--57------38-------35--------38------|
 --46--35--38----35-46--38---46--38-38-|--46--35--46----35-46--35----46--35--|
 --------------------------------------|-------------------------------------|

E E E S S E E E E E E E S S E E E E
 
 -----------------------------------|-----------------------------------|
 -----------------------------------|-----------------------------------|
 -----------------------------------|-----------------------------------|
 -----------------------------------|-----------------------------------|
 --35------38-------35------46------|--46------38-------46------46------|
 --46--35--46----35-46--35--38--35--|--35--35--46----35-35--35--38--35--|
 -----------------------------------|-----------------------------------|

E E S S S S S S S S S S S S
 
 --------------------------------------------|
 --------------------------------------------|
 --------------------------------------------|
 --------------------------------------------|
 --------------------------------------------|
 --38--38--38-38-35-38-38-35-35---38---38-38-|
 --------------------------------------------|

S S S S S S S S S S S S S S S S
 
 -------------------------------------------------||
 -------------------------------------------------||
 -------------------------------------------------||
 -------------------------------------------------||
 -------------------------------------------------||
 --35---38-38-38-38-38-38-47-47-45-45-43-43-41-41-||
 -------------------------------------------------||

Drums Legend:
 
 ---------------

38...Snare
40...Electric Snare
36...Bass Drum
35...Acoustic Bass Drum
41...Low Floor Tom
43...High Floor Tom
45...Low Tom
47...Low-Mid Tom
48...Hi-Mid Tom
42...Closed Hi Hat
44...Pedal Hi Hat
46...Open Hi Hat
51...Ride Cymbal 1
59...Ride Cymbal 2
49...Crash Cymbal 1
52...Chinese Cymbal
57...Crash Cymbal 2
55...Splash Cymbal
Duration Legend
 
 ---------------

W - whole
H - half
Q - quarter
E - 8th
S - 16th
T - 32nd
X - 64th
. - note dotted
|-n-| - n-tuplets
Tablature Legend
 
 ----------------

L - tied note
x - dead note
g - grace note
(n) - ghost note
> - accentuded note
NH - natural harmonic
AH - artificial harmonic
TH - tapped harmonic
SH - semi harmonic
PH - pitch harmonic
h - hammer on
p - pull off
b - bend
br - bendRelease
pb - preBend
pbr - preBendRelease
brb - bendReleaseBend
\n/ - tremolo bar dip
\n - tremolo bar dive
-/n - tremolo bar Release up
/n\ - tremolo bar inverted dip
/n - tremolo bar return
-\n - tremolo bar Release down
S - shift slide
s - legato slide
/ - slide into from below or out of upwards
\ - slide into from above or out of downwards
~ - vibrato
W - wide vibrato
tr - trill
TP - tremolo picking
T - tapping
S - slap
P - pop
< - fade in
^ - brush up
v - brush down

Important: The song above is NOT stored on the Chordie server. The original song is hosted at www.guitartabs.cc. Chordie works as a search engine and provides on-the-fly formatting. Chordie does not index songs against artists'/composers' will. To remove this song please click here.

Text color:
Chord color:
Chord grids: 
Font size:    
Page size: 

E
Rate #1 of 1 versions

Login - add to songbook

SHARE PAGE  




You need to log in to post comments