Guitar Tabs, Chords and Lyrics
Major upgrade!! After one year development the new version of Chordie is now online! Please give feedback.


Blood of the Scribe   Lamb of God

 
 |------------------------------|----------------------------|-----------------------------|
 |4-----------------------------|----------------------------|-----------------------------|
 |4-----------------------------|----------------------------|-----------------------------|
 |--0-00-0-12-0-0-19-0-0-17-0-0-|-14-0-0-18-0-0-15-0-0-3-5-6-|-0-00-0-12-0-0-19-0-0-17-0-0-|

 


 


 [(]e [3]e [)]e [(]e [3]e [)]e [(]e s[3]s [)]e [(]e [3]e [)]e [(]e s[3]s [)]e [(]e [3]e [)]e [(]e [3]e [)]e [(]e [3]e [)]e [(]e [3]e [)]e [(]e [3]e [)]e [(]e [3]e [)]e [(]e [3]e [)]e


 

 
 |----------------------------|-----------------------------|----------------------------|
 |----------------------3---1-|-----------------------------|----------------------------|
 |----------------------------|-----------------------------|----------------------------|
 |-14-0-0-18-0-0-1-11-1---1---|-0-00-0-12-0-0-19-0-0-17-0-0-|-14-0-0-18-0-0-15-0-0-3-5-6-|

 


 


 Fill 1A x1


 [(]e s[3]s [)]e [(]e [3]e [)]e [(]e [3]e [)]e [(]e [3]e [)]e [(3)]e q [(]q [3)] e [(3)]e q [(]q [3)] e


 

 
 |-----------------------------|----------------------|
 |-----------------------------|----------------------|
 |-----------------------------|----------------------|
 |-0-00-0-12-0-0-19-0-0-17-0-0-|-0-8--8--0-0-7--7--10-|

 


 


 Riff 1 x1


 


 Fill 1B x1


 [(]e s[3]s [)]e [(]e [3]e [)]e [(]e [3]e [)]e [(]e [3]e [)]e [(]q [3)] e q [(]q [3)] e q


 

 
 |-----------------------------|-------------------------|
 |-----------------------------|-------------------------|
 |-----------------------------|-------------------------|
 |-0-00-0-12-0-0-19-0-0-17-0-0-|-8--12-(12)--7--14-(14)--|

 


 


 Riff 2 x1


 [(]e s[3]s [)]e [(]e [3]e [)]e [(]e [3]e [)]e [(]s s[3] e [)]e [(3)]e q [(]q [3)] e [(3)]e q [(]q [3)] e [(]e s[3]s [)]e [(]e [3]e [)]e [(]e [3]e [)]e [(]s s[3] e [)]e


 

 
 |----------------------------|---------------------|----------------------------|
 |--------3-----3-----3h4p3---|---------------------|--------3-----3-----3h4p3---|
 |-5-55-5---5-5---5-5-------5-|-5-------------------|-5-55-5---5-5---5-5-------5-|
 |----------------------------|---8--8--7-7-7--7--7-|----------------------------|

 


 


 [(3)]e q [(]q [3)] e [(3)]e q [(]q [3)] e [(]e s[3]s [)]e [(]e [3]e [)]e [(]e [3]e [)]e [(]s s[3] e [)]e [(3)]e q [(]q [3)] e [(3)]e q [(]q [3)] e


 

 
 |---------------------|----------------------------|---------------------|
 |---------------------|--------3-----3-----3h4p3---|---------------------|
 |---------------------|-5-55-5---5-5---5-5-------5-|-5-------------------|
 |-0-2--2--3-3-3--3--0-|----------------------------|---8--8--7-7-7--7--3-|

 


 


 [(3)]e q [(]q [3)] e [(]q [3]q [)]q


 

 
 |-----------------------|
 |-----------------------|
 |-----------------------|
 |-3-3--3--3/17--16--13--|

 


 


 Riff 3 x3


 [(]q [3)] e [(]e [3]e [)]e [(]e [3]e [)]e [(]e [3]e [)]e [(]e [3]e [)]e [(]e [3]e [)]e [(]e [3]e [)]e [(]e [3]e [)]e


 

 
 |------------------------|-------------------------|
 |------------------------|-------------------------|
 |------------------------|-------------------------|
 |-0--0-1p0-0-1p0-0-1p0-0-|-4p0-0-4p0-0-4p0-0-4p0-0-|

 


 


 [(]e [3]e [)]e [(]e [3]e [)]e [(]e [3]e [)]e [(]e [3]e [)]e [(]e [3]e [)]e [(]e [3]e [)]e [(]e [3]e [)]e q


 

 
 |-------------------------|----------------------|
 |-------------------------|----------------------|
 |-------------------------|----------------------|
 |-3p0-0-3p0-0-3p0-0-3p0-0-|-3p0-0-3p0-0-0-3-4-6--|

 


 


 Fill 2 x1


 [(]q [3)] e [(]e [3]e [)]e [(]e [3]e [)]e [(]e [3]e [)]e [(]e [3]e [)]e [(]e [3]e [)]e [(]e [3]e [)]e [(]e [3]e [)]e


 

 
 |------------------------|-------------------------|
 |------------------------|-------------------------|
 |------------------------|-------------------------|
 |-0--0-1p0-0-1p0-0-1p0-0-|-4p0-0-4p0-0-4p0-0-4p0-0-|

 


 


 [(]e [3]e [)]e [(]e [3]e [)]e [(]e [3]e [)]e [(]e [3]e [)]e [(]ss [3]e [)]e [(]e [3]e [)]e [(]q [3]q [)]q


 

 
 |-------------------------|--------------------------|
 |-------------------------|--------------------------|
 |-------------------------|--------------------------|
 |-3p0-0-3p0-0-3p0-0-3p0-0-|-00-0-0-0-0-0/17--16--13--|

 


 


 Riff 4 x2


 [(]e [3]e [)]e [(]e [3]e [)]e [(]e [3]e [)]e [(]e [3]e [)]e [(]e [3]e [)]e [(]e [3]e [)]e [(]e [3]e [)]e [(]e [3]e [)]e


 

 
 |-------------------------|-------------------------|
 |-------------------------|-------------------------|
 |-------------------------|-------------------------|
 |-0-0-0-1p0-0-0-0-0-0-1-0-|-5-0-4-0-0-0-0-0-0-0-1-0-|

 


 


 [(]e [3]e [)]e [(]e [3]e [)]e [(]e [3]e [)]e [(]e [3]e [)]e [(]e [3]e [)]e [(]e [3]e [)]e [(]e [3]e [)]e q


 

 
 |-------------------------|----------------------|
 |-------------------------|----------------------|
 |-------------------------|----------------------|
 |-5-0-4-0-0-0-0-0-0-0-1-0-|-5-0-4-0-0-0-0-3-4-6--|

 


 ( Tab from: http://www.guitartabs.cc/tabs/l/lamb_of_god/blood_of_the_scribe_btab.html )


 Fill 3 x1


 [(]e [3]e [)]e [(]e [3]e [)]e [(]e [3]e [)]e [(]e [3]e [)]e [(]e [3]e [)]e [(]e [3]e [)]e [(]e [3]e [)]e [(]e [3]e [)]e


 

 
 |-------------------------|-------------------------|
 |-------------------------|-------------------------|
 |-------------------------|-------------------------|
 |-2-2-2-3p2-2-2-2-2-2-3p2-|-7/2-6-2-2-2-2-2-2-2-3p2-|

 


 


 [(]e [3]e [)]e [(]e [3]e [)]e [(]e [3]e [)]e [(]e [3]e [)]e [(]e [3]e [)]e [(]e [3]e [)]e [(]e [3]e [)]e q


 

 
 |-------------------------|----------------------|
 |-------------------------|----------------------|
 |-------------------------|----------------------|
 |-7/2-6-2-2-2-2-2-2-2-3p2-|-7/2-6-2-2-2-2-3-2-1--|

 


 


 Riff 4 x1


 


 Riff 5 x2


 [(]q [3)] e [(]e [3]e [)]e [(]e [3]e [)]e [(]e s[3]s [)]e [(]e [3]e [)]e [(]e [3]e s[)]s [(]e [3]e [)]e [(]s s [3]s s [)]e


 

 
 |------7h10---6h9----------|------------------------------------------|
 |--------------------------|-15p14---14p12------11-12-12h14p12p11-----|
 |--------------------------|--------------------------------------13\-|
 |-0--0------0-----0-0-00-0-|-------0-------00-0-----------------------|

 


 


 [(]e s[3]s [)]e [(]e [3]e [)]e [(]e [3]e [)]e [(]e s[3]s [)]e [(]e [3]e [)]e [(]e [3]e s[)]s [(]e [3]e [)]e [(]s s[3] e [)]e


 

 
 |--------7h10---6h9----------|----------------------------|
 |----------------------------|-8p7---7p5----------6h7p6---|
 |----------------------------|----------------7-8-------7-|
 |-8-88-8------8-----8-8-88-8-|-----8-----88-8-------------|

 


 


 [(]e s[3]s [)]e [(]e [3]e [)]e [(]e [3]e [)]e [(]e s[3]s [)]e [(]e [3]e [)]e [(]e [3]e s[)]s [(]e [3]e [)]e [(]s s [3]s s [)]e


 

 
 |-------------------------------|------------------------------------------|
 |--------12h15---11h14----------|-15p14---14p12------11-12-12h14p12p11-----|
 |-------------------------------|--------------------------------------13\-|
 |-0-00-0-------0-------0-0-00-0-|-------0-------00-0-----------------------|

 


 


 [(]e s[3]s [)]e [(]e [3]e [)]e [(]e [3]e [)]e [(]e s[3]s [)]e [(]e [3]e [)]e [(]e [3]e s[)]s [(]q [3]q [)]q


 

 
 |--------7h10---6h9----------|-----------------------|
 |----------------------------|-8p7---7p5-------------|
 |----------------------------|-----------------------|
 |-8-88-8------8-----8-8-88-8-|-----8-----00-8--4--1--|

 


 


 Riff 6 x4


 [(]e s[3]s [)]e [(]e [3]e [)]e [(]e [3]e [)]e [(]e [3]e [)]e [(]e [3]e [)]e [(]e [3]e [)]e [(]e [3]e [)]e [(]e [3]e [)]e


 

 
 |-----------------------------|----------------------------|
 |-----------------------------|----------------------------|
 |-----------------------------|----------------------------|
 |-0-00-0-12-0-0-19-0-0-17-0-0-|-14-0-0-18-0-0-15-0-0-3-5-6-|

 


 


 [(]e s[3]s [)]e [(]e [3]e [)]e [(]e [3]e [)]e [(]e [3]e [)]e [(]e s[3]s [)]e [(]e [3]e [)]e [(]e [3]e [)]e q


 

 
 |--------------------------|-----------------------|
 |--------------7-----8-----|-----------------------|
 |--------7-----------------|--------5--------------|
 |-5-55-5---5-5---5-5---5-5-|-3-33-3---3-3-3-0-3-5--|

 


 


 Riff 5 x2


 


 Riff 3 x2


 


 Riff 7 x1


 [(]e [3]e [)]e [(]e [3]e [)]e [(]e [3]e [)]e [(]e [3]e [)]e [(]e [3]e [)]e [(]e [3]e [)]e [(]e [3]e [)]e [(]e [3]e [)]e


 

 
 |-------------------------|-------------------------|
 |-------------------------|-------------------------|
 |-------------------------|-------------------------|
 |-0-0-0-1-0-0-1-0-0-1-0-0-|-4-0-0-4-0-0-4-0-0-4-0-0-|

 


 


 Fill 4A x1


 [(]e [3]e [)]e [(]e [3]e [)]e [(]e [3]e [)]e [(]e [3]e [)]e [(]e [3]e [)]e [(]e [3]e [)]e [(]e [3]e [)]e q


 

 
 |-------------------------|----------------------|
 |-------------------------|----------------------|
 |-------------------------|----------------------|
 |-3-0-0-3-0-0-3-0-0-3-0-0-|-3-0-0-3-0-0-0-3-4-7--|

 


 


 Riff 7 x1


 


 Fill 4B x1 ( 3 )


 [(]e [3]e [)]e [(]e [3]e [)]e [(]e [3]e [)]e [(]e [3]e [)]e [(]e [3]e [)]e [(]e [3]e [)]e [(]e [3]e [)]e q q


 

 
 |-------------------------|----------------------------------|
 |-------------------------|----------12----------------------|
 |-------------------------|----12-13----13-12----------------|
 |-3-0-0-3-0-0-3-0-0-3-0-0-|-13----------------17-16-13-8--4--|

 


 


 Riff 8 x2


 ssse. e q e ss ssse. e q q se se se se se s e se se se se e


 

 
 |---------15--15----|---------14--14\--|------------------|-----------------|
 |-------------------|------------------|------------------|-----------------|
 |-------------------|------------------|------------------|-----------------|
 |-0000--0--------00-|-0000--0----------|-01-01-01-01-01-0-|-1-01-01-01-04-4-|

 


 


 ssse. e q e ss ssse. e q q se se se se se s e se se se se e


 

 
 |---------15--15----|---------14--14\--|------------------|-------------------|
 |-------------------|------------------|------------------|-------------------|
 |-------------------|------------------|------------------|-------------------|
 |-0000--0--------00-|-0000--0----------|-01-01-01-01-01-0-|-1-01-01-01-013-10-|

 


 


 Riff 9 x4


 se se se se se s e se se se sq se se se se se s e se se se se e


 

 
 |------------------|----------------|------------------|-------------------|
 |------------------|----------------|------------------|-------------------|
 |------------------|----------------|------------------|-------------------|
 |-01-01-01-01-01-0-|-1-01-01-01-04--|-01-01-01-01-01-0-|-1-01-01-01-013-10-|


Important: The song above is NOT stored on the Chordie server. The original song is hosted at www.guitartabs.cc. Chordie works as a search engine and provides on-the-fly formatting. Chordie does not index songs against artists'/composers' will. To remove this song please click here.

This song is displayed as text-only. Transposing and tuning is only available for chordpro-songs.
Rate #1 of 1 versions

Login - add to songbook

SHARE PAGE  




You need to log in to post comments