Guitar Tabs, Chords and Lyrics
Major upgrade!! After one year development the new version of Chordie is now online! Please give feedback.


Break You   Lamb of God

 
 |------------------------------------------|--------------------------------------------|
 |4-----------------------------------------|--------------------------------------------|
 |4---------------------------------1---2---|--------------------------------5h85h8--4h8-|
 |--001p01p0001p01p0001p0001p01p000---3---4-|-001p01p0001p01p0001p0001p01p000------00----|

 


 


 Riff 2 x1


 ttt tt tttt tt tttt tttt tt ttt s s s s ttt tt tttt tt tttt tttt tt ttttt ttt ts


 

 
 |-----------------------------------------|------------------------------------------|
 |-----------------------------------------|------------------------------------------|
 |---5h85h8--5h85h8--4h8--5h85h8-----------|---5h85h8--5h85h8--4h8--5h85h8------------|
 |-00------00------00---00------00-6-5-8-7-|-00------00------00---00------00811071006-|

 


 


 ttt tt tttt tt tttt tttt tt ttt s s s s ttt tt tttt tt tttt tttt tt ttttttttts


 

 
 |-----------------------------------------|----------------------------------------|
 |-----------------------------------------|----------------------------------------|
 |---5h85h8--5h85h8--4h8--5h85h8-----------|---5h85h8--5h85h8--4h8--5h85h8--3--5--6-|
 |-00------00------00---00------00-6-5-8-7-|-00------00------00---00------00-65-65--|

 


 


 Riff 3 x3


 q sssss ssssss s s ssssssss sssssS q sssss sssssss ssssssssssssssss


 

 
 |--------------------|-------------------|------------------|------------------|
 |--------------------|-------------------|-3----------------|------------------|
 |-5--\---------------|----------------4--|------------------|--01013104310---0-|
 |-----00001p000001p0-|-1p00000001p0000---|----00001p0000000-|-5-----------545--|

 


 


 Fill 1 x1


 q sssss ssssss s s ssssssss sssssS q sssss sssssss sssssssssssss sss


 

 
 |--------------------|-------------------|------------------|-------------------|
 |--------------------|-------------------|-3----------------|-------------------|
 |-5--\---------------|----------------4--|------------------|--01013104310------|
 |-----00001p000001p0-|-1p00000001p0000---|----00001p0000000-|-5-----------5p013-|

 


 


 Fill 2 x1 ( 3 )


 Ssssssssssssssss ttssssssss s sssssss


 

 
 |------------------|----------------------|
 |------------------|-----------------2-5--|
 |---8-7-8-7-8-7-14-|----8-7-144h5p410-0---|
 |--0-0-0-0-0-0-0---|-000-0-0------------3-|

 


 


 Riff 4 x2 ( 3 )


 ttsssssssssssssss ttsssssssssssssss ttsssssssssssssss ttssssssss s sssssss


 

 
 |-------------------|-------------------|-------------------|----------------------|
 |-------------------|-------------------|-------------------|-----------------2-5--|
 |----8-7-8-7-8-7-14-|----8-7-8-7-8-7-14-|----8-7-8-7-8-7-14-|----8-7-144h5p410-0---|
 |-000-0-0-0-0-0-0---|-000-0-0-0-0-0-0---|-000-0-0-0-0-0-0---|-000-0-0------------3-|

 


 


 Rest for 1 beat


 


 Riff 3 x3


 


 Fill 1 x1


 


 Fill 3 x1 ( 3 )


 q sssss sssssss sssssssss s sssssss


 

 
 |------------------|------------------3--|
 |-3----------------|----------------2--1-|
 |------------------|--01013104h5p410-0---|
 |----00001p0000000-|-5-------------------|

 


 


 Riff 4 x1


 


 Riff 5 x1 ( 3 ) ( 3 ) ( 3 )


 ttss ssssssssss s sss ttsssssssttssss s sss ttss ssssssssss s sss


 

 
 |----10-9-7-6-7-6h7p6-9-|----8-7-5----9-9h10p976-|----10-9-7-6-7-6h7p6-9-|
 |--------------------8--|------------------------|--------------------8--|
 |-----------------------|------------------------|-----------------------|
 |-000--0-0-0-0-0--------|-666-6-6-6777-7---------|-000--0-0-0-0-0--------|

 


 


 ttssssssss e ss e s ttss sssssttssssse ttss ssse sssss[(]s [3]s [)]sss


 

 
 |----8-7-5------------|----10-9-6----8-7-5-|----10-9-7----9-9h10p976-|
 |---------------------|--------------------|-------------------------|
 |---------------------|--------------------|-------------------------|
 |-666-6-6-67-7-78\3-3-|-000--0-0-0666-6-6--|-888--8-8--777-7---------|

 


 


 ttss sssssttssssss ttss ssse ss s s ss s s


 

 
 |----10-9-6----8-7-5-|----10-9-7----------------|
 |--------------------|--------------------------|
 |--------------------|--------------------------|
 |-000--0-0-0666-6-6--|-888--8-8--71010107111111-|

 


 


 Riff 1A x2


 


 Fill 4 x1


 tt E tt E tt E ttS tt s tt s s tt E tt E tt E ttS tt s tt s s


 

 
 |-----------------------------------|-----------------------------------|
 |---------------------------------4-|---------------------------------3-|
 |-----------------------------------|-----------------------------------|
 |-00----00----00----00--00-0-00-1---|-00----00----00----00--00-0-00-1---|

 


 


 Riff 1A x2


 


 Riff 1B x2


 tt E tt E tt E ttS tt s s s s tt E tt E tt E ttS ttt tt tttt t


 

 
 |----------------------------------|-------------------------------------|
 |----------------------------------|-------------------------------------|
 |--------------------------1---2---|-------------------------5h85h8--4h8-|
 |-00----00----00----00--00---3---4-|-00----00----00----00--00------00----|

 


 


 Riff 1C x2


 ttt tt tttt tt tttt tttt tt ttt s s s s ttt tt tttt tt tttt tttt tt ttt s s s s


 

 
 |-----------------------------------------|-----------------------------------------|
 |-----------------------------------------|-----------------------------------------|
 |---------------------------------1---2---|---------------------------------1-------|
 |-001p01p0001p01p0001p0001p01p000---3---4-|-001p01p0001p01p0001p0001p01p000---3-2-1-|


Important: The song above is NOT stored on the Chordie server. The original song is hosted at www.guitartabs.cc. Chordie works as a search engine and provides on-the-fly formatting. Chordie does not index songs against artists'/composers' will. To remove this song please click here.

This song is displayed as text-only. Transposing and tuning is only available for chordpro-songs.
Rate #2 of 3 versions

Jango Player

Login - add to songbook

SHARE PAGE  




You need to log in to post comments