Guitar Tabs, Chords and Lyrics
Major upgrade!! After one year development the new version of Chordie is now online! Please give feedback.


One Gun   Lamb of God

 
 e ]---------------------------------------------------------------[X3
 B ]---------------------------------------------------------------[
 G ]---------------------------------------------------------------[
 D ]---------------------------------------------------------------[
 A ]-----5-----6-----5-----6-----5---------------------------------[
 D ]-0-1---0-1---0-1---0-1---0-1---0-3-5-3-5-6-5-3-5A^-3-0-1-4-1-0-[

 


 * * * * * * * * * * * * * * * * * * * * * * * * *


 


 [Ending 2] 


 

 
 e ]-------------------------------------------------------------][-------[X2
 B ]-------------------------------------------------------------][-------[
 G ]-------------------------------------------------------------][-------[
 D ]-------------------------------------------------------------][-------[
 A ]-----5-----6-----5-----6-----5-----5-------------------------][-6-6-6-[
 D ]-0-1---0-1---0-1---0-1---0-1---0-3---6-5-3-0-1-0-3h4p3-0-1-0-][-6-6-6-[

 


 * * * * * * * * * * * * * * * * * * * * *


 


 [Ending 2] 


 e ]---[X1


 B ]---[


 G ]---[


 D ]-6-[


 A ]-6-[


 D ]-6-[


 


 [Bridge] 


 

 
 e ]---------------------------------[ X3
 B ]---------------------------------[
 G ]---------------------------------[
 D ]---------------------------------[
 A ]---------------------------------[
 D ]-0-0-0-0-0-0-0-0-0-0-3-0-1-4-1-0-[

 


 * * * * * * * * * *


 


 

 
 e ]-----------------------------------[
 B ]-----------------------------------[
 G ]-----------------------------------[
 D ]-----------------------------------[
 A ]---------------------------------6-[
 D ]-3-3-3-3-3-3-3-3-2-2-2-2-3h4p3-1-6-[

 


 * * * * * * * * * * * *


 


 [Bridge] 


 

 
 e ]---------------------------------[ X3
 B ]---------------------------------[
 G ]---------------------------------[
 D ]---------------------------------[
 A ]---------------------------------[
 D ]-0-0-0-0-0-0-0-0-0-0-3-0-1-4-1-0-[

 


 * * * * * * * * * *


 

 
 e ]-----------------------------------[
 B ]-----------------------------------[
 G ]-----------------------------------[
 D ]-----------------------------------[
 A ]---------------------------------6-[
 D ]-3-3-3-3-3-3-3-3-2-2-2-2-3h4p3-1-6-[

 


 * * * * * * * * * * * *


 


 [Cborus] 


 

 
 e ]-------------------------------------[
 B ]-------------------------------------[
 G ]-------------------------------------[
 D ]-------0---------------------------1-[
 A ]-------0-------------------------3---[
 D ]-0-0-1---0-0-0-2-0-3h4p3-0-3-1-0-----[

 


 * * * * * * * *


 


 

 
 e ]-----------------------------------[
 B ]-----------------------------------[
 G ]-----------------------------------[
 D ]-----------------------------------[
 A ]-------1---------0h1p0---1---------[
 D ]-1-1-1---1-1-0-1-------4---4-3-4-1-[

 


 * * * * * * *


 


 

 
 e ]-------------------------------------[
 B ]-------------------------------------[
 G ]-------------------------------------[
 D ]-------0---------------------------1-[
 A ]-------0-------------------------3---[
 D ]-0-0-1---0-0-0-2-0-3h4p3-0-3-1-0-----[

 


 * * * * * * * *


 


 

 
 e ]-----------------------------------[
 B ]-----------------------------------[
 G ]-----------------------------------[
 D ]-----------------------------------[
 A ]-------1---------------------------[
 D ]-1-1-1---1-1-0-1-/8-3-3-3-/6-1-1-1-[

 


 * * * * * * *


 


 

 
 e ]-------------------------------------[
 B ]-------------------------------------[
 G ]-------------------------------------[
 D ]-------0---------------------------1-[
 A ]-------0-------------------------3---[
 D ]-0-0-1---0-0-0-2-0-3h4p3-0-3-1-0-----[

 


 * * * * * * * *


 


 

 
 e ]-----------------------------------[
 B ]-----------------------------------[
 G ]-----------------------------------[
 D ]-----------------------------------[
 A ]-------1---------0h1p0---1---------[
 D ]-1-1-1---1-1-0-1-------4---4-3-4-1-[

 


 * * * * * * *


 


 

 
 e ]-------------------------------------[
 B ]-------------------------------------[
 G ]-------------------------------------[
 D ]-------0---------------------------1-[
 A ]-------0-------------------------3---[
 D ]-0-0-1---0-0-0-2-0-3h4p3-0-3-1-0-----[

 


 * * * * * * * *


 


 

 
 e ]-----------------------------------[
 B ]-----------------------------------[
 G ]-----------------------------------[
 D ]-----------------------------------[
 A ]-------1---------------------------[
 D ]-1-1-1---1-1-0-1-/8-3-3-3-/6-1-1-1-[

 


 * * * * * * *


 [Verse] 


 

 
 e ]---------------------------------------------------------------[
 B ]---------------------------------------------------------------[
 G ]---------------------------------------------------------------[
 D ]---------------------------------------------------------------[
 A ]-----5-----6-----5-----6-----5---------------------------------[
 D ]-0-1---0-1---0-1---0-1---0-1---0-3-5-3-5-6-5-3-5A^-3-0-1-4-1-0-[

 


 * * * * * * * * * * * * * * * * * * * * * * * * *


 


 [Ending 1] 


 

 
 e ]-------------------------------------------------------------][-------[
 B ]-------------------------------------------------------------][-------[
 G ]-------------------------------------------------------------][-------[
 D ]-------------------------------------------------------------][-------[
 A ]-----5-----6-----5-----6-----5-----5-------------------------][-6-6-6-[
 D ]-0-1---0-1---0-1---0-1---0-1---0-3---6-5-3-0-1-0-3h4p3-0-1-0-][-6-6-6-[

 


 * * * * * * * * * * * * * * * * * * * * *


 [Ending 2] 


 e ]---[


 B ]---[


 G ]---[


 D ]-6-[


 A ]-6-[


 D ]-6-[


 


 [Bridge] 


 

 
 e ]---------------------------------[ X3
 B ]---------------------------------[
 G ]---------------------------------[
 D ]---------------------------------[
 A ]---------------------------------[
 D ]-0-0-0-0-0-0-0-0-0-0-3-0-1-4-1-0-[

 


 * * * * * * * * * *


 


 

 
 e ]-----------------------------------[
 B ]-----------------------------------[
 G ]-----------------------------------[
 D ]-----------------------------------[
 A ]---------------------------------6-[
 D ]-3-3-3-3-3-3-3-3-2-2-2-2-3h4p3-1-6-[

 


 * * * * * * * * * * * *


 


 

 
 e ]---------------------------------[ X3
 B ]---------------------------------[
 G ]---------------------------------[
 D ]---------------------------------[
 A ]---------------------------------[
 D ]-0-0-0-0-0-0-0-0-0-0-3-0-1-4-1-0-[

 


 * * * * * * * * * *


 


 

 
 e ]-----------------------------------[
 B ]-----------------------------------[
 G ]-----------------------------------[
 D ]-----------------------------------[
 A ]---------------------------------6-[
 D ]-3-3-3-3-3-3-3-3-2-2-2-2-3h4p3-1-6-[

 


 * * * * * * * * * * * *


 


 [Cborus] 


 

 
 e ]-------------------------------------[
 B ]-------------------------------------[
 G ]-------------------------------------[
 D ]-------0---------------------------1-[
 A ]-------0-------------------------3---[
 D ]-0-0-1---0-0-0-2-0-3h4p3-0-3-1-0-----[

 


 * * * * * * * *


 


 

 
 e ]-----------------------------------[
 B ]-----------------------------------[
 G ]-----------------------------------[
 D ]-----------------------------------[
 A ]-------1---------0h1p0---1---------[
 D ]-1-1-1---1-1-0-1-------4---4-3-4-1-[

 


 * * * * * * *


 


 

 
 e ]-------------------------------------[
 B ]-------------------------------------[
 G ]-------------------------------------[
 D ]-------0---------------------------1-[
 A ]-------0-------------------------3---[
 D ]-0-0-1---0-0-0-2-0-3h4p3-0-3-1-0-----[

 


 * * * * * * * *


 


 

 
 e ]-----------------------------------[
 B ]-----------------------------------[
 G ]-----------------------------------[
 D ]-----------------------------------[
 A ]-------1---------------------------[
 D ]-1-1-1---1-1-0-1-/8-3-3-3-/6-1-1-1-[

 


 * * * * * * *


 


 [Rbytbm Solo] 


 

 
 e ]-------------------------------------[
 B ]-------------------------------------[
 G ]-------------------------------------[
 D ]-------------------------------------[
 A ]-----------------------------------6-[
 D ]-0-1-0-1-3h4p3-0-1-0-1-3h4p3-0-1-0-6-[

 


 * * * * * * * * * * *


 [ Tab from: bttp://www.guitartabs.cc/tabs/l/lamb_of_god/one_gun_tab_ver_4.btml ] 


 [Rbytbm Solo] 


 

 
 e ]-----------------------------------[
 B ]-----------------------------------[
 G ]-----------------------------------[
 D ]-----------------------------------[
 A ]------------------------------/12\-[
 D ]-0-1-0-1-3h4p3-0-1-0-1-3h4p3--/12\-[

 


 * * * * * * * *


 [Rbytbm Solo] 


 

 
 e ]-------------------------------------[
 B ]-------------------------------------[
 G ]-------------------------------------[
 D ]-----------------------------------3-[
 A ]-----------------------------------1-[
 D ]-2-3-2-3-5h6p5-2-3-2-3-5h6p5-2-3-2---[

 


 


 [Solo] 


 

 
 e ]-------------------------------------------[
 B ]-------------------------------------------[
 G ]-------------------------------------------[
 D ]-----------------------------------------9-[
 A ]-7-8-7-8-10h11p10-7-8-7-8-10h11p10-7-8-7---[
 D ]-------------------------------------------[

 


 * * * * * * * * * * *


 


 

 
 e ]-----------------------------------------------------------[
 B ]--------------------------------------------7h8p7----------[
 G ]----------------------------------------8-9-------9-8------[
 D ]---------------8h9p8-------------8-9-11---------------10-9-[
 A ]-7-9-10-7-9-10-------10-9-7-9-10---------------------------[
 D ]-----------------------------------------------------------[

 


 * * * * * * * * * * *


 


 

 
 e ]-8h12p8p0-8h12p8h12p8p0-8h12p8h12p8p0-7h11p7p0-7h11p7h11p7p0-[
 B ]-------------------------------------------------------------[
 G ]-------------------------------------------------------------[
 D ]-------------------------------------------------------------[
 A ]-------------------------------------------------------------[
 D ]-------------------------------------------------------------[
 e ]-7h11p7h11p7p0--19^----------------------------------------------[
 B ]--------------------12h15p12----12h15p12----12h15p12----12-------[
 G ]-----------------------------15----------15----------15----15-14-[
 D ]-----------------------------------------------------------------[
 A ]-----------------------------------------------------------------[
 D ]-----------------------------------------------------------------[
 e ]------------------------------------------------------------10----[
 B ]------------------------------13-------------------------10----13-[
 G ]-12-15\12-11-12-11-9-11-12\---12----------------------------------[
 D ]-----------------------------x-----12^-(12)p10----12-12^----------[
 A ]----------------------------x------------------12-----------------[
 D ]------------------------------------------------------------------[
 e ]-10---10-13-13^----------------------------------------------[
 B ]-10-13----------13-13-13^-13\--13p10-------13p10----10-13p10-[
 G ]-------------------------------------13-14-------12----------[
 D ]-------------------------------------------------------------[
 A ]-------------------------------------------------------------[
 D ]-------------------------------------------------------------[
 e ]------------------13p10----10-13p10h13p10----10-13p10h13p10---[
 B ]-13p10h13p10---10-------14----------------14----------------x-[
 G ]------------13------------------------------------------------[
 D ]--------------------------------------------------------------[
 A ]--------------------------------------------------------------[
 D ]--------------------------------------------------------------[
 e ]-------------------15-------------------15-17----15-17----19h15-15-15-[
 B ]-15-17-18-15-17-18----18-17-15-17-18-18-------18-------18-------------[
 G ]----------------------------------------------------------------------[
 D ]----------------------------------------------------------------------[
 A ]----------------------------------------------------------------------[
 D ]----------------------------------------------------------------------[

 


 


 e ]-19p15-15-15-20^-[


 

 
 B ]-----------------[
 G ]-----------------[
 D ]-----------------[
 A ]-----------------[
 D ]-----------------[

 


 


 [Solo Outro] 


 

 
 e ]------------------------------------------------------------------[
 B ]------------------------------------------------------------------[
 G ]------------------------------------------------------------------[
 D ]------------------------------------------------------------------[
 A ]-3-3-2---2-3-2-1-0-1-2-3-----3-0--3-3-2---2-3-2-1-0-1-2-3-----3-0-[
 D ]-3-----3---3-2-1-0-1-2-3-6-5-3-0--3-----3---3-2-1-0-1-2-3-6-5-3-0-[

 


 * * * * * * * * * * * * * * * * * * * * * *


 


 

 
 e ]------------------------------------------------------------------------[
 B ]------------------------------------------------------------------------[
 G ]------------------------------------------------------------------------[
 D ]------------------------------------------------------------------------[
 A ]-5-5-4---4-5-4-3-5-5-4-5-4-3----8-7---7-8-7-6-----10-9----------------0-[
 D ]-5-----5---5-4-3-5-----5-4-3-/8-----8---8-7-6-/10------10/12-11-12-13-0-[

 


 


 [Bridge] 


 

 
 e ]---------------------------------[ X3
 B ]---------------------------------[
 G ]---------------------------------[
 D ]---------------------------------[
 A ]---------------------------------[
 D ]-0-0-0-0-0-0-0-0-0-0-3-0-1-4-1-0-[

 


 * * * * * * * * * *


 

 
 e ]-----------------------------------[
 B ]-----------------------------------[
 G ]-----------------------------------[
 D ]-----------------------------------[
 A ]---------------------------------6-[
 D ]-3-3-3-3-3-3-3-3-2-2-2-2-3h4p3-1-6-[

 


 * * * * * * * * * * * *


 


 [Break Down] 


 

 
 e ]---------------------------------[
 B ]---------------------------------[
 G ]---------------------------------[
 D ]---------------------------------[
 A ]---------------------------------[
 D ]-000-000-000-000-000-3-0-1-4-1-0-[

 


 *** *** *** *** ***


 


 

 
 e ]-----------------------------------[
 B ]-----------------------------------[
 G ]-----------------------------------[
 D ]-----------------------------------[
 A ]---------------------------------6-[
 D ]-333-333-333-333-222-222-3h4p3-1-6-[

 


 *** *** *** *** *** ***


 


 [Verse] 


 

 
 e ]---------------------------------------------------------------[
 B ]---------------------------------------------------------------[
 G ]---------------------------------------------------------------[
 D ]---------------------------------------------------------------[
 A ]-----5-----6-----5-----6-----5---------------------------------[
 D ]-0-1---0-1---0-1---0-1---0-1---0-3-5-3-5-6-5-3-5A^-3-0-1-4-1-0-[

 


 * * * * * * * * * * * * * * * * * * * * * * * * *


 


 [Ending 2] 


 

 
 e ]-------------------------------------------------------------][-------[
 B ]-------------------------------------------------------------][-------[
 G ]-------------------------------------------------------------][-------[
 D ]-------------------------------------------------------------][-------[
 A ]-----5-----6-----5-----6-----5-----5-------------------------][-6-6-6-[
 D ]-0-1---0-1---0-1---0-1---0-1---0-3---6-5-3-0-1-0-3h4p3-0-1-0-][-6-6-6-[

 


 * * * * * * * * * * * * * * * * * * * * *


 


 [Ending 2] 


 e ]---[


 B ]---[


 G ]---[


 D ]-6-[


 A ]-6-[


 D ]-6-[


 


 [Outro] - Guitar 1


 

 
 e ]----------------------------------------------------------[
 B ]----------------------------------------------------------[
 G ]----------------------------------------------------------[
 D ]----------------------------------------------------------[
 A ]----------------------------------------------------------[
 D ]-000-----000----000-----000-000-000---000---000-------000-[

 


 *** *** *** *** *** *** *** *** ***


 


 [Outro] - Guitar 2


 

 
 e ]----------------------------------------------------------[
 B ]----------------------------------------------------------[
 G ]----------------------------------------------------------[
 D ]----------------------------------------------------------[
 A ]----------------------------------------------------------[
 D ]-000-000---000---000-000----------000----000---000-000----[


Important: The song above is NOT stored on the Chordie server. The original song is hosted at www.guitartabs.cc. Chordie works as a search engine and provides on-the-fly formatting. Chordie does not index songs against artists'/composers' will. To remove this song please click here.

This song is displayed as text-only. Transposing and tuning is only available for chordpro-songs.
Rate #1 of 3 versions

Jango Player

Login - add to songbook

SHARE PAGE  




You need to log in to post comments