Guitar Tabs, Chords and Lyrics
Update 25:10. 13:00. Site is back up running again. Songbooks are recovered. Woring on getting search back up..


Magnetized  Laura Veirs

 
 -----------------------------------------------------------------------------

MAGNETIZED ? Laura Veirs
 
 -----------------------------------------------------------------------------

Tabbed by: Conner
Email: maestrocpm@gmail.com
Tuning: Standard - CAPO 6th Fret
(A Section):
 
 e|-----------------------------------------------------------------------|
 B|-----------------------------------------------------------------------|
 G|----------0-----0-----0-----0------------0-----0-----0-----0-----------|
 D|-------2-----2-----2-----2-----2------2-----2-----2-----2-----2--------|
 A|----------3-----3-----3-----3------------3-----3-----3-----3-----------|
 E|----1------------------------------1-----------------------------------|
 e|-----------------------------------------------------------------------|
 B|-----------------------------------------------------------------------|
 G|----------0-----0-----0-----0------------0-----0-----0-----0-----------|
 D|-------2-----2-----2-----2-----0------0-----0-----0-----0-----0--------|
 A|----------3-----3-----3-----3------------2-----2-----2-----2-----------|
 E|----3------------------------------3-----------------------------------|
 e|-----------------------------------------------------------------------|
 B|-----------------------------------------------------------------------|
 G|----------0-----0-----0-----0------------0-----0-----0-----0-----------|
 D|-------2-----2-----2-----2-----2------2-----2-----2-----2-----2--------|
 A|----------3-----3-----3-----3------------3-----3-----3-----3-----------|
 E|----1------------------------------1-----------------------------------|
 e|-----------------------------------------------------------------------|
 B|-----------------------------------------------------------------------|
 G|----------0-----0-----0-----0------------0-----0-----0-----0-----------|
 D|-------2-----2-----2-----2-----0------0-----0-----0-----0-----0--------|
 A|----------3-----3-----3-----3------------2-----2-----2-----2-----------|
 E|----3------------------------------3-----------------------------------|

(B Section):
[Am] [G/B] [C]  
 
 e|----------------------------------------------0------------------------|
 B|------------1---------------------------3------------------------------|
 G|------2-------------0-----0-------0------------------------------------|
 D|---------2-------------0-------------2--------------2------------------|
 A|---0-------------2-------------3-----------3-----3---------------------|
 E|-----------------------------------------------------------------------|
 e|-------------------------------------3---------------------------------|
 B|-------------------------------------------0---------------------------|
 G|---------0-----0-----0----------------------------0--------------------|
 D|------2-----2-----2-----2----------------------------------------------|
 A|---------3-----3-----3----------2--------------------------------------|
 E|---1-------------------------3-----3-----3-----3-----------------------|

[Am] [G/B] [C]  
 
 e|----------------------------------------------0------------------------|
 B|------------1---------------------------3------------------------------|
 G|------2-------------0-----0-------0------------------------------------|
 D|---------2-------------0-------------2--------------2------------------|
 A|---0-------------2-------------3-----------3-----3---------------------|
 E|-----------------------------------------------------------------------|
 e|-----------------------------------------------------------------------|
 B|-----------------------------------------------------------------------|
 G|---------0-----0-----0-------------0-----0-----0-----------------------|
 D|------2-----2-----2-----2-------0-----0-----0-----0--------------------|
 A|---------3-----3-----3-------------2-----2-----2-----------------------|
 E|---1-------------------------3-----------------------------------------|
 e|------------------------------|
 B|------------------------------|
 G|----------0-----0-----0-------| 


Important: The song above is NOT stored on the Chordie server. The original song is hosted at www.guitartabs.cc. Chordie works as a search engine and provides on-the-fly formatting. Chordie does not index songs against artists'/composers' will. To remove this song please click here.

Text color:
Chord color:
Chord grids: 
Font size:    
Page size: 

Am C G/B
Rate #2 of 4 versions

Jango Player

Login - add to songbook

SHARE PAGE  




You need to log in to post comments