Guitar Tabs, Chords and Lyrics
Major upgrade!! After one year development the new version of Chordie is now online! Please give feedback.


For Your Life   Led Zeppelin

 
 G|--|----------------|----------------|----------------|----------------|
 D|--|----------------|----------------|----------------|----------------|
 A|--|----------3-13--|----------------|----------3-13--|----------------|
 E|3-|(3)-3---------3-|(3)-3---------3-|(3)-3---------3-|(3)-----------3-|
 G|----------------|----------------|----------------|----------------|
 D|----------------|----------------|----------------|----------------|
 A|----------3-13--|----------------|----------3-13--|----------3-113-|
 E|(3)-----------3-|(3)-----------3-|(3)-----------3-|(3)-------------|
 G|----------------|----------------|----------------|----------------|
 D|----------------|----------------|----------------|----------------|
 A|-31133--33----3-|-33113313-------|----------3-13--|----------3-103-|
 E|----------------|--------------3-|(3)-3---------3-|(3)-------------|

 


 You said I was the only....


 


 

 
 G|----------------|----------------|----------------|----------------|
 D|----------------|----------------|----------------|----------------|
 A|(3)-33--33----3-|(3)-3313--------|----------3-13--|----------3-103-|
 E|----------------|--------------3-|(3)-----------3-|(3)-------------|
 G|----------------|----------------|----------------|----------------|
 D|----------------|----------------|----------------|----------------|
 A|(3)-33--33----3-|(3)-3313--------|----------3-13--|----------3-10--|
 E|----------------|--------------3-|(3)-----------3-|(3)-----------3-|
 G|----------------|----------------|----------------|----------------|
 D|1--11---13-3----|----------------|1--11---13-3----|----------------|
 A|------------01--|13-3------------|------------01--|13-3------------|
 E|----------------|----33----------|----------------|----33--------3-|
 G|----------------|----------------|----------------|----------------|
 D|----------------|----------------|----------------|----------------|
 A|----------3-13--|----------------|----------3-13--|----------------|
 E|(3)-----------3-|(3)-----------3-|(3)-----------3-|(3)-----------3-|
 G|----------------|----------------|----------------|----------------|
 D|----------------|----------------|----------------|----------------|
 A|----------3-13--|----------------|----------3-13--|------------313-|
 E|(3)-----------3-|(3)-----------3-|(3)-----------3-|(3)-3-----3-----|
 G|----------------|----------------|----------------|----------------|
 D|----------------|----------------|----------------|----------------|
 A|(3)-33--33----3-|(3)-3--3--------|----------3-13--|----------3-103-|
 E|----------------|-----03-------3-|(3)-----------3-|(3)-------------|
 G|----------------|--3-2-0---------|----------------|----------------|
 D|----------------|----------------|----------------|----------------|
 A|(3)-33--33----3-|-3-3-3-3--------|----------3-13--|----------3-103-|
 E|----------------|--------------3-|(3)-----------3-|(3)-------------|
 G|----------------|----------------|----------------|----------------|
 D|----------------|----------------|----------------|----------------|
 A|3---33--33----3-|-3---013--------|----------3-13--|----------3-10-1|
 E|----------------|--0-3---------3-|(3)-----------3-|(3)-----------3-|

 


 


 5/4 time


 

 
 G|----------------|----------------|--------------------|
 D|1--11---13-3----|----------------|1--11---13-3--------|
 A|------------01--|13-3------------|------------1---13-3|
 E|----------------|----33----------|--------------------|

 


 


 4/4 time


 

 
 G|----------------|----------------|----------------|----------------|
 D|------5-3-32----|--53--2---------|------5-3-32----|--53--2---------|
 A|0-------------0-|--------------0-|--------------0-|--------------0-|
 E|----------------|----------------|----------------|----------------|
 G|----------------|----------------|----------------|-----------5----|
 D|------5-3-32----|--53--2---------|------5-3-32----|--53--2-567-7567|
 A|--------------0-|--------------0-|--------------0-|----------------|
 E|----------------|----------------|----------------|----------------|

 


 [3/] [3/] 


 3/4 time 4/4 time


 

 
 G|5-----------|----------------|----------------|----------------|
 D|--7---------|------------3--2|--0-------------|------------3--2|
 A|------------|----------------|-----3--10------|----------------|
 E|------3-----|(3)-------------|----------313333|13--------------|

 


 


 3/4 time


 

 
 G|----------------|----------------|----------------|----------------|------------|
 D|--0-------------|------------3--2|--0-------------|------------3--2|--0---------|
 A|-----3--10------|----------------|-----3--10------|----------------|-----3--10--|
 E|----------313333|13--------------|----------313333|13--------------|----------31|

 


 


 4/4 time


 

 
 G|----------------|----------------|----------------|----------------|
 D|----------------|----------------|----------------|----------------|
 A|----------------|----------------|----------------|----------------|
 E|3---3---5-53--3-|(3)-----------3-|(3)-----5-53--3-|(3)-----------3-|

 


 


 2/4 time 4/4 time


 

 
 G|----------------|-----------3----|3-------|----------------|
 D|----------------|--------345-5345|--5-----|----------------|
 A|----------------|----------------|--------|----------------|
 E|(3)-----5-53--3-|(3)-------------|------3-|(3)-----5-53--3-|

 


 ( Tab from: http://www.guit[3/]arta[3/]bs.cc/tabs/l/led_zeppelin/for_your_life_btab.html )


 

 
 G|----------------|----------------|----------------|----------------|
 D|----------------|----------------|----------------|----------------|
 A|----------------|----------------|----------------|----------------|
 E|(3)-----------3-|(3)-----5-53--3-|(3)-----------3-|(3)-----5-53--3-|

 


 


 2/4 time


 

 
 G|----------------|----------------|-----------3----|3-------|
 D|----------------|----------------|--------345-5345|--5-----|
 A|----------------|----------------|----------------|------0-|
 E|(3)-----------3-|(3)-----5-53--3-|(3)-------------|--------|

 


 [3/] [3/] 


 4/4 time


 

 
 G|----------------|----------------|----------------|----------------|
 D|------5-3-32----|--53-2----------|------5-3-32----|--53--2---------|
 A|(0)-----------0-|--------------0-|(0)-----------0-|--------------0-|
 E|----------------|----------------|----------------|----------------|

 


 


 3/4 time


 

 
 G|----------------|----------------|----------------|-----------5----|5-----------|
 D|------5-3-32----|--53--2---------|------5-3-32----|-53--32-567-7567|--7---------|
 A|(0)-----------0-|--------------0-|(0)-----------0-|----------------|------------|
 E|----------------|----------------|----------------|----------------|------3-----|

 


 [3/] [3/] 


 4/4 time


 

 
 G|----------------|----------------|----------------|----------------|
 D|------------3--2|--0-------------|------------3--2|--0-------------|
 A|----------------|-----3--10------|----------------|-----3--10------|
 E|(3)-------------|----------313333|13--------------|----------313333|

 


 


 3/4 time


 

 
 G|----------------|----------------|----------------|------------||
 D|------------3--2|--0-------------|------------3---|--0---------||
 A|----------------|-----3--10------|----------------|-----3--10--||
 E|13--------------|----------313333|13--------------|----------30||

 


 


 Guitar Solo


 4/4 time


 

 
 G|----------------|----------------|----------------|----------------|
 D|----------------|----------------|----------------|----------------|
 A|----------------|----------------|----------------|----------------|
 E|3---3---5-53--3-|(3)-----------3-|(3)-----5-53--3-|(3)-----------3-|
 G|----------------|----------------|----------------|----------------|
 D|----------------|----------------|----------------|----------------|
 A|----------------|----------------|----------------|----------------|
 E|(3)-----5-53--3-|(3)-----------3-|(3)-----5-53--3-|(3)-------------|

 


 


 5/8 time 4/4 time


 

 
 G|-------3----3---|---3------|----------------|----------------|
 D|----345-5345--5-|345-5-----|----------------|----------------|
 A|----------------|----------|----------------|----------------|
 E|----------------|--------3-|(3)-----5-53--3-|(3)-----------3-|

 


 [3/] [3/] [3/]  


 

 
 G|----------------|----------------|----------------|----------------|
 D|----------------|----------------|----------------|----------------|
 A|----------------|----------------|----------------|----------------|
 E|(3)-----5-53--3-|(3)-----------3-|(3)-----5-53--3-|(3)-----------3-|

 


 


 2/4 time 4/4 time


 

 
 G|----------------|-----------3----|3-------|----------------|
 D|----------------|--------345-5345|--5-----|----------------|
 A|----------------|----------------|--------|----------3-13--|
 E|(3)-----5-53--3-|(3)-------------|------3-|(3) 3---------3-|

 


 [3/] [3/]  


 

 
 G|----------------|----------------|----------------|----------------|
 D|----------------|----------------|----------------|----------------|
 A|----------------|----------3-13--|----------------|----------3-13--|
 E|(3)-----------3-|(3)-----------3-|(3)-----------3-|(3)-----------3-|
 G|----------------|----------------|----------------|----------------|
 D|----------------|----------------|----------------|----------------|
 A|----------------|----------3-13--|----------3-103-|3---33--33----3-|
 E|(3)-----------3-|(3)-----------3-|(3)-------------|----------------|
 G|----------------|----------------|----------------|----------------|
 D|----------------|----------------|----------------|----------------|
 A|(3)-3313--------|----------3-13--|----------3-103-|(3)-33--33----3-|
 E|--------------3-|(3)-----------3-|(3)-------------|----------------|
 G|----------------|----------------|----------------|----------------|
 D|----------------|----------------|----------------|----------------|
 A|(3)-3--3--------|----------3-13--|----------3-10--|3---33--33----3-|
 E|-----03-------3-|(3)-----------3-|(3)-------------|----------------|
 G|----------------|----------------|----------------|----------------|
 D|----------------|----------------|----------------|1--11---13-3----|
 A|-3---013--------|----------3-13--|----------3-10--|------------01--|
 E|--0-3---------3-|(3)-----------3-|(3)-----------31|----------------|
 G|----------------|----------------|----------------|----------------|
 D|----------------|1--11---13-3----|----------------|1--11---13-3----|
 A|13-3------------|------------01--|13-3------------|------------01--|
 E|----33----------|----------------|----33----------|----------------|
 G|----------------|----------------|----------------|----------------||
 D|----------------|1--11---13-3----|----------------|----------------||
 A|13-3------------|------------0---|13-3------------|----------------||
 E|----33----------|----------------|----13----------|(3)-------------||


Important: The song above is NOT stored on the Chordie server. The original song is hosted at www.guitartabs.cc. Chordie works as a search engine and provides on-the-fly formatting. Chordie does not index songs against artists'/composers' will. To remove this song please click here.

This song is displayed as text-only. Transposing and tuning is only available for chordpro-songs.
Rate #2 of 2 versions

Jango Player

Login - add to songbook

SHARE PAGE  



You need to log in to post comments