Guitar Tabs, Chords and Lyrics
Major upgrade!! After one year development the new version of Chordie is now online! Please give feedback.


Tea for One   Led Zeppelin

 
 G|----------------|----------------|
 D|-------r--------|--------r-------|
 A|----------------|----------------|
 E|----------------|----------------|
 G|----------------|----------------|----------------|----------------|
 D|--03----03------|----03----03----|------03----03--|--------03----03|
 A|01----01----010-|--01----01----01|0---01----01----|010---01----01--|
 E|---------------3|13--------------|-313------------|---313----------|

 


 (7/8)


 

 
 G|----------------|--------------|
 D|----------03----|03----------0-|
 A|--010---01----01|----010---01--|
 E|-----313--------|-------313----|

 


 


 Verse one (no lyrics)


 (12/8) (Gm) (Fm) (Bb)


 

 
 G|------------------------|------------------------|
 D|------------------------|------------------------|
 A|------------------------|------------1-----------|
 E|3-----------3---------2-|1-----------------------|

 


 [(Cm)]  

 
 G|------------------------|------------------------|
 D|------------------------|------------------------|
 A|3-----------3-----------|3-----------3-----------|
 E|----------3-------------|----------3-----------2-|

 


 [(Fm)]  

 
 G|------------------------|------------------------|
 D|------------3-----------|------------3-----------|
 A|----------3-------------|----------3-------------|
 E|1-----------------------|1-----------------------|

 


 [(Cm)]  

 
 G|------------------------|------------------------|
 D|------------------------|------------------------|
 A|3-----------3-----------|3-----------3-----------|
 E|----------3-------------|----------3-------------|

 


 [(Gm)] [(Fm)] [(Bb)]  

 
 G|------------------------|------------------------|
 D|------------------------|------------------------|
 A|----------5-------------|------------1---------2-|
 E|1--3--------3-------3-2-|1---------1-------------|

 


 [(Cm)]  

 
 G|------------------------|------------------------|
 D|------------------------|------------------------|
 A|3-----------3-----------|3---------------------1-|
 E|----------3-----------3-|------------3-------3---|

 


 


 Verse 2 (Cm)


 

 
 G|------------------------|------------------------|
 D|------------------------|------------------------|
 A|3-----3-----3----(0)----|3--3--------3-----------|
 E|------------------------|------------------------|
 G|------------------------|------------------------|
 D|------------------------|------------------------|
 A|3---3-------3-----------|3---3-------3-----------|
 E|------------------------|----------------------3-|

 


 [(Fm)]  

 
 G|------------------------|------------------------|
 D|----3-------------------|----3-------------------|
 A|------------3----/5-----|------------3----/5-----|
 E|1-----------------------|1-----------------------|

 


 [(Cm)]  

 
 G|------------------------|------------------------|
 D|------------------------|------------------------|
 A|3---3--------------/5---|3---3-------3-----------|
 E|------------------------|------------------------|

 


 [(Gm)] [(Fm)] [(Bb)]  

 
 G|------------------------|------------------------|
 D|------------------------|------------------------|
 A|------------------------|--------3-2-1---------1-|
 E|1---3-------3---------2-|1-----------------------|

 


 [(Cm)]  

 
 G|------------------------|------------------------|
 D|------------------------|------------------------|
 A|3-----------3-----------|3-----------3-----------|
 E|----------------------3-|----------3-------3-----|

 


 


 Verse 3 (Cm)


 

 
 G|------------------------|--------------3-5-------|
 D|------------------------|------------------3-5-1-|
 A|1---3-r-----------------|1---3-r-----------------|
 E|------------------------|------------------------|
 G|------------------------|--------------3-5-------|
 D|------------------------|------------------3-5-1-|
 A|1---3-r-----------------|1---3-r-----------------|
 E|------------------------|------------------------|

 


 [(Fm)]  

 
 G|------------------------|--------------3-5-------|
 D|1---3-r-----------------|1---3-r-----------3-5-1-|
 A|------------------------|------------------------|
 E|------------------------|------------------------|

 


 [(Cm)]  

 
 G|------------------------|--------------3-5-------|
 D|------------------------|------------------3-5-1-|
 A|1---3-r-----------------|1---3-r-----------------|
 E|------------------------|------------------------|

 


 [(Gm)] [(Fm)] [(Bb)]  

 
 G|------------------------|------------------------|
 D|------------------5-----|------------------------|
 A|------------------------|-----------1----------2-|
 E|1---3---------------3-2-|1--------1--------------|

 


 [(Cm)]  

 
 G|------------------------|------------------------|
 D|------------------------|------------------------|
 A|3-----------3---------1-|3----(3)------------1-2-|
 E|----------3---------3---|------------3-----3-----|

 


 


 Guitar solo(Cm) (Fm)


 

 
 G|------------------------|------------------------|
 D|------------------------|------------------------|
 A|3-----3-----3-----3-----|------------------------|
 E|------------------------|1r----------------------|

 


 [(Cm)]  

 
 G|------------------------|------------------------|
 D|------------------------|------------------------|
 A|3-----3-----3-----3-----|3r-----------------/5---|
 E|------------------------|------------------------|

 


 [(Fm/C)]  

 
 G|------------------------|------------------------|
 D|------------------------|------------------------|
 A|3------------------/5---|3-----------3r----------|
 E|------------------------|-------------------/4---|

 


 [(Cm)]  

 
 G|------------------------|------------------------|
 D|------------------------|------------------------|
 A|3---3--------------/5---|3---3-------------3---3-|
 E|------------------------|------------------------|

 


 [(Gm)] [(Fm)] [(Bb)]  

 
 G|------------------------|------------------------|
 D|------------5-----------|------------------------|
 A|------------------------|------3-----1-----------|
 E|1---3-------------3-----|1-----------------------|

 


 [(Cm)]  

 
 G|------------------------|------------------------|
 D|------------------------|------------------------|
 A|3-----------3-----------|3---------------------1-|
 E|----------3-------/3----|------------3-------3---|
 G|------------------------|------------------------|
 D|------------------------|------------------------|
 A|3---3--------------/5---|3---3--------------/5---|
 E|------------------------|------------------------|
 G|------------------------|------------------------|
 D|------------------------|------------------------|
 A|3---3-------3------/5---|3---3-------3------/5---|
 E|----------3-------------|----------3-------------|

 


 [(Fm)]  

 
 G|------------------------|------------------------|
 D|------------5-----------|------------5-----------|
 A|----------3--------/5---|----------3--------/5---|
 E|3---3-------------------|3---3-------------------|

 


 [(Cm)]  

 
 G|------------------------|------------------------|
 D|------------------------|------------------------|
 A|3---3-------3------/5---|3---3-------3-----3-----|
 E|----------3-------------|----------3-------------|

 


 [(Gm)] [(Fm)] [(Bb)]  

 
 G|------------------------|------------------------|
 D|------------------------|------------------------|
 A|------------------------|------------1-----------|
 E|1---3-------------3---2-|1---1r------------------|

 


 [(Cm)]  

 
 G|------------------------|------------------------|
 D|------------------------|------------------------|
 A|3---3r------3-----------|3-----------------------|
 E|----------3-----------3-|------------3-----3---3-|

 


 


 Verse 4 (Cm)


 

 
 G|------------------------|--------------3-5-------|
 D|------------------------|------------------3-5-1-|
 A|1---3-r-----------------|1---3-r-----------------|
 E|------------------------|------------------------|
 G|------------------------|--------------3-5-------|
 D|------------------------|------------------3-5-1-|
 A|1---3-r-----------------|1---3-r-----------------|
 E|------------------------|------------------------|

 


 [(Fm)]  

 
 G|------------------------|--------------3-5-------|
 D|1---3-r-----------------|1---3-r-----------3-5-1-|
 A|------------------------|------------------------|
 E|------------------------|------------------------|

 


 [(Cm)]  

 
 G|------------------------|--------------3-5-------|
 D|------------------------|------------------3-5-1-|
 A|1---3-r-----------------|1---3-r-----------------|
 E|------------------------|------------------------|

 


 [(Gm)] [(Fm)] [(Bb)]  

 
 G|------------------------|------------------------|
 D|------------------5-----|------------------------|
 A|------------------------|-----------1----------2-|
 E|1---3---------------3-2-|1--------1--------------|

 


 [(Cm)]  

 
 G|------------------------|------------------------|
 D|------------------------|------------------------|
 A|3-----------3---------1-|3-----3-------------1-2-|
 E|----------3---------3---|------------3-----3-----|

 


 


 Verse 5 (Cm)


 

 
 G|------------------------|--------------3-5-------|
 D|------------------------|------------------3-5-1-|
 A|3---3--------------/5---|3---3-------------------|
 E|------------------------|------------------------|
 G|------------------------|--------------3-5-------|
 D|------------------------|------------------3-5-1-|
 A|3---3-------3------/5---|3---3-------3r----------|
 E|----------3-------------|----------3-------------|

 


 [(Fm)]  

 
 G|------------------------|--------------3-5-------|
 D|-----------(5)----------|------------------3-5-1-|
 A|----------3-------3/5---|------------------------|
 E|3---3-------------------|3---3-------------------|

 


 [(Cm)]  

 
 G|------------------------|--------------3-5-------|
 D|------------------------|------------------3-5-1-|
 A|3---3-------------3/5---|3---3-------------------|
 E|------------------------|------------------------|

 


 [(Gm)] [(Fm)] [(Bb)]  

 
 G|------------------------|------------------------|
 D|------------5-----------|------------------------|
 A|---------(5)------------|--------3-2-1---------1-|
 E|1---3-------------3---2-|1-----------------------|

 


 [(Cm)]  

 
 G|------------------------|------------------------|
 D|------------------------|------------------------|
 A|3-----3-----3-----------|3-----------3--------(3)|
 E|----------3-----------3-|----------3-------------| 

 


 


 Outro


 [(Gm)] [(Fm)] [(Bb)]  

 
 G|------------------------|------------------------|
 D|------------5-----------|------------------------|
 A|------------------------|-----------1----------2-|
 E|1---3-------------3---2-|1-----1-------------1---|

 


 [(Cm)]  

 
 G|--------------------3---|-----------------(5)----|
 D|----------------------5-|------------------------|
 A|3-----3-----3-----------|3-----------3-----------|
 E|----------3-------------|----------3---------3-5-|

 


 [(Gm)] [(Fm)] [(Bb)]  

 
 G|------------------------|------------------------|
 D|------------5-----------|------------------------|
 A|-----------5------------|-----------1----------2-|
 E|1---3-------------3-3-2-|1-----1-------------1---|

 


 (Cm) rit?????????


 

 
 G|------------------------|------------------------|------
 D|------------------------|------------------------|-----
 A|3-----3-----/5-3------3-|-/5-3-5r----3-----------|3\r-
 E|------------------------|------------------------|--


Important: The song above is NOT stored on the Chordie server. The original song is hosted at www.guitartabs.cc. Chordie works as a search engine and provides on-the-fly formatting. Chordie does not index songs against artists'/composers' will. To remove this song please click here.

This song is displayed as text-only. Transposing and tuning is only available for chordpro-songs.
Rate #0 of 9 versions

Jango Player

Login - add to songbook

SHARE PAGE  




You need to log in to post comments