Guitar Tabs, Chords and Lyrics
Major upgrade!! After one year development the new version of Chordie is now online! Please give feedback.


The Ocean   Led Zeppelin

 
 G[------------------------------------]
 D[-7-7-5------------5------7----7-----]x4
 A[-------7-3----5-7----5-7----4---5-7-]
 E[------------------------------------]

 


 


 Verse1


 0:29


 

 
 G[-----------------------------------------------]
 D[-----------------------------------------------]x4
 A[-5-5-5-5-5--3-3-3-3-3--------5-5-5-5-----------]
 E[-----------------------5-3-3-------------------]

 


 


 Chorus1


 0:50


 

 
 G[------------------------------------]
 D[-7-7-5------------5------7----7-----]x4
 A[-------7-3----5-7----5-7----4---5-7-]
 E[------------------------------------]

 


 


 Verse2


 1:11


 

 
 G[-----------------------------------------------]
 D[-----------------------------------------------]x4
 A[-5-5-5-5-5--3-3-3-3-3--------5-5-5-5-----------]
 E[-----------------------5-3-3-------------------]

 


 


 Solo


 1:32


 

 
 G[------------------------------------]
 D[-7-7-5------------5------7----7-----]x4
 A[-------7-3----5-7----5-7----4---5-7-]
 E[------------------------------------]

 


 


 Post-Solo


 1:53


 

 
 G[-------------------------------------]
 D[-------------------------------------]x4
 A[-5-5-5-5-5--3-3-3-3-3--------5-5-5-5-]
 E[-----------------------5-3-3---------]

 


 


 Break


 2:12


 

 
 G[------------]
 D[---7-----7~-]
 A[-4---5-7----]
 E[------------]

 


 


 No Bass From 2:14-2:35


 


 Verse3


 2:36


 

 
 G[-----------------------------------------------]
 D[-----------------------------------------------]x4
 A[-5-5-5-5-5--3-3-3-3-3--------5-5-5-5-----------]
 E[-----------------------5-3-3-------------------]

 


 [ Tab from: bttp://www.guitartabs.cc/tabs/l/led_zeppelin/tbe_ocean_btab_ver_7.btml ] 


 Chorus2


 2:57


 

 
 G[------------------------------------]
 D[-7-7-5------------5------7----7-----]x4
 A[-------7-3----5-7----5-7----4---5-7-]
 E[------------------------------------]

 


 


 Bridge


 Tempo Change


 3:17


 

 
 G[-------------------4-------------------------------]
 D[---------------------7-4---------------4-4---4-5-6-]
 A[-5-2-------4-2---5-------7---------5-7-----7-------]
 E[-----5-2-0-----4-----------0-2-3-4-----------------]

 


 


 3:29


 

 
 G[-----------------------------------------------------------------------]
 D[-------------------------4---------------4-----------------------------]
 A[-5-2-----------------4-5---7---------4-5---7---7---5-5-----------------]
 E[-----5-2-2-0-2-3-4-5---------7-0-5-5---------7---5-----7-5-2-0-2-2-3-4-]

 


 


 3:44


 

 
 G[-------4-----------------4---------6-4----------------------]
 D[---4-7---7-4---------------7-4-4-------6--------------------]
 A[-5-----------7-5-4---5-----------7-------7-5-4--------------]
 E[-------------------7---5------------------------7-5-0-2-3-4-]

 


 


 3:55


 

 
 G[---------------------------------------------------------4-----]
 D[-------4---------------4-----------------------------4-7---7-4-]
 A[---4-5---7---------4-5---7---7---5-5-2-------------5-----------]
 E[-5---------7-0-5-5---------7---5-------5-2-0-2-3-4-------------]

 


 


 4:09


 

 
 G[---------------------------------------------------]
 D[-------------4-----4-2-----------------------------]
 A[-7-5-4-----5---5-7-------2-7-6-5-5-3-2-------------]
 E[-------7-5-------------4---------------5-0-2-3-4-5-]

 


 


 4:18


 

 
 G[---------------------------------]
 D[-------4---------------4---------]
 A[---4-5---7---------4-5---7-------]
 E[-5---------7-0-5-5---------7-7~--]


Important: The song above is NOT stored on the Chordie server. The original song is hosted at www.guitartabs.cc. Chordie works as a search engine and provides on-the-fly formatting. Chordie does not index songs against artists'/composers' will. To remove this song please click here.

This song is displayed as text-only. Transposing and tuning is only available for chordpro-songs.
Rate #1 of 11 versions

Jango Player

Login - add to songbook

SHARE PAGE  




You need to log in to post comments