Guitar Tabs, Chords and Lyrics
Major upgrade!! After one year development the new version of Chordie is now online! Please give feedback.


Whole Lotta Love   Led Zeppelin

 
 E[----------------/---------------------------------------------------------
 B[----------------/--9------------------------------------------------------
 G[----------------/--9--------9---------9--------9--------9-------9-----9---
 D[----------------/--9--------9---------9--------9--------9-------9-----9---
 A[------5-----5---/--7--------7---------7--------7--------7-------7-----7---
 E[--5/7----7------/-----0-0-0----0-0-0-----0-0-0---0-0-0----0-0-0---0-0-----

 


 PM


 

 
 E---------------------------------------------------------------------------
 B---------------------------------------------------------------------------
 G--9/----------------9-------9--------9-------9-------9-------9-------9/----
 D--9/----------------9-------9--------9-------9-------9-------9-------9/----
 A--7/-------5-----5--7-------7--------7-------7-------7-------7-------7/----
 D------5/7----7--------0-0-0----0-0-0---0-0-0---0-0-0---0-0-0---0-0-0-------
 ---------------]
 ---------------]
 ---------------]
 ---------------]
 ------5----5---]
 -5/7----7------]

 


 


 Verse:


 Riff 1


 

 
 E[--------------------------------------------------------------------------
 B[--------------------------------------------------------------------------
 G[--------------------------------------------------------------------------
 D[--9-------9-------9---------------9-------9-------9/----------------------
 A[--7-------7-------7--5-----5---5--7-------7-------7/-----5---5------------
 E[----0-0-0---0-0-0------5/7---7------0-0-0---0-0-0----5/7---7--------------
 E--------------------------------------------------------------------------
 B--------------------------------------------------------------------------
 G--------------------------------------------------------------------------
 D--9-------9-------9/-------------9-------9-------9/-----------------------
 A--7-------7-------7/------5---5--7-------7-------7/-----5---5-------------
 E----0-0-0---0-0-0-----5/7---7------0-0-0---0-0-0----5/7---7---------------
 PM-----------PM
 E---------------------------]
 B-------------------7-7-7-7-]
 G--9------9---------7-7-7-7-]
 D--9------9-----9-9-7-7-7-7-]
 A--7---7--7-----7-7-5-5-5-5-]
 E----0--0---0-0-------------]

 


 


 Chorus:


 Riff 2


 

 
 PM----------PM PM-----------PM PM------------PM
 E[--------------------------------------------------------------------------
 B[--------------------7-7-7-7---------------------7-7-7-7-------------------
 G[-9------9-----------7-7-7-7---9------9----------7-7-7-7---9-----9---------
 D[-9------9-----9-9---7-7-7-7---9------9-----9-9--7-7-7-7---9-----9-----9-9-
 A[-7---7--7-----7-7---5-5-5-5---7---7--7-----7-7--5-5-5-5---7---7-7-----7-7-
 E[---0-0----0-0-------------------0-0----0-0------------------0-0---0-0-----
 E-------------------------------------------------------------------------]
 B-7-7-7-7--------------------------------9---------------7-7-7-7----------]
 G-7-7-7-7--9-----9-------9/--------------9---------------7-7-7-7--9-------]
 D-7-7-7-7--9-----9-------9/--------------9-------------9-7-7-7-7--9-------]
 A-5-5-5-5--7-----7-------7/------5---5---7-------------7-5-5-5-5--7-------]
 E------------0-0---0-0-0-----5/7---7-------0-0-0-0-0-0------------0-------]

 


 


 Guitar Break:


 ~~~~~~~~


 

 
 E[--------12---------------------------------------------------------------
 B[-----12----15-12-----------------------------------3---------------------
 G[-14b-------------15-14-12-14-12-14b-(14)------2/4---4/2-0-2-0-0-2-0------
 D[--------------------------------------------------------------------2-0--
 A[-------------------------------------------------------------------------
 E[-------------------------------------------------------------------------

 


 ~~~~~~ ~~~~~~


 

 
 E------------------12---------15-----------------------------------------
 B---------------12----15b-15b----15b-------17-20-(20)-------20-17--------
 G-----------14b---------------------------------------21-18--------------
 D--2-0-------------------------------------------------------------------
 A------2-----------------------------------------------------------------
 E--------0---------------------------------------------------------------

 


 ~~~~~~~~ ~~~~~~~~ ~~~~~~


 

 
 E---------------19b-19-18-17-------------------------------------19--------]
 B--(17)------17--------------20-17-20-17-------17-19-19b-19b-19b----17-----]
 G--------------------------------------------------------------------------]
 D--------------------------------------------------------------------------]
 A--------------------------------------------------------------------------]
 E--------------------------------------------------------------------------]

 


 


 Outro:


 


 

 
 E[------------------------------------------------------------------------
 B[------------------------------------------------------------------------
 G[------------------------------------------------------------------------
 D[---------5-9-----9-------9/-----------6-6---9-------9-------------------
 A[-----5---5-7-----7-------7/-----5---5-7-7---7-------7-------5---/12-10--
 E[-5/7---7-----0-0---0-0-0----5/7---7-------0---0-0-0---0-5/7---7---------
 E-------------------------------------------------------------------------]
 B-------------------------------------------------------------------------]
 G-----9-------------------------------------------------------------------]
 D-----9-------9-----------9-------9-------9/------------------------------]
 A-----7-------7-----5---5-7-------7-------7/-----5---12/------------------]
 E-0-0---0-0-0---7-7---7-----0-0-0---0-0-0----5/7---7----------------------]


Important: The song above is NOT stored on the Chordie server. The original song is hosted at www.guitartabs.cc. Chordie works as a search engine and provides on-the-fly formatting. Chordie does not index songs against artists'/composers' will. To remove this song please click here.

This song is displayed as text-only. Transposing and tuning is only available for chordpro-songs.
Rate #1 of 9 versions

Login - add to songbook

SHARE PAGE  




You need to log in to post comments