Guitar Tabs, Chords and Lyrics
Major upgrade!! After one year development the new version of Chordie is now online! Please give feedback.


Hannah & Gabi  The Lemonheads

Originally posted by: ?
Corrected by: Chris Bray (cbray@comp.uark.edu)
[D(add9)] [Am(add9)] [G]  
 
 |--0--------5---0---0---|---7----7----7-----3--|
 |--7--------7---7---0---|---0----0----0-----0--|
 |--7--------7---7---5---|---5----5----5-----0--|
 |--0--------0---0---7---|---7----7----7-----0--|
 |-------------------0---|---0----0----0-----2--|
 |-----------------------|-------------------3--|
 |--------------3----3---|--------------3--3--3-|
 |--------------0----0---|--------------0--0--0-|
 |--------------0----0---|--------------0--0--0-|
 |--------------0----0---|--------------0--0--0-| Repeat
 |-----0h2---------------|-----0h2--------------|
 |--3-------3------------|--3--------3----------|


Important: The song above is NOT stored on the Chordie server. The original song is hosted at www.guitartabs.cc. Chordie works as a search engine and provides on-the-fly formatting. Chordie does not index songs against artists'/composers' will. To remove this song please click here.

Text color:
Chord color:
Chord grids: 
Font size:    
Page size: 

Am(add9) D(add9) G
Rate #1 of 1 versions

Login - add to songbook

SHARE PAGE  




You need to log in to post comments