Guitar Tabs, Chords and Lyrics
Major upgrade!! After one year development the new version of Chordie is now online! Please give feedback.


If I Could Talk Iâ??d Tell You   The Lemonheads

 
 e---1---1-----0---0-----1--1----0--------|
 b---1---1-----1---1-----1--1----1--------|
 g---2---2-----0---0-----2--2----0--------|
 d---3---3-----2---2-----3--3----2--------|
 a---x---x-----3---3-----x--x----3--------|
 E----------------------------------------|

 


 


 Half past nine.......quarter to ten...


 


 [(F)] [(C)] [(G/C)]  

 
 e---1--1-----0---0------x--x-----------|
 b---1--1-----1---1------1--1--3--1--0--|
 g---2--2-----0---0------0--0--0--0--0--|
 d---3--3-----2---2------0--0--0--------|
 a---x--x-----3---3------2--2-----------|
 E-----------------------3--3-----------|


Important: The song above is NOT stored on the Chordie server. The original song is hosted at www.guitartabs.cc. Chordie works as a search engine and provides on-the-fly formatting. Chordie does not index songs against artists'/composers' will. To remove this song please click here.

This song is displayed as text-only. Transposing and tuning is only available for chordpro-songs.
Rate #2 of 3 versions

Login - add to songbook

SHARE PAGE  



You need to log in to post comments