Guitar Tabs, Chords and Lyrics
Server problems seems to be fixed. Chordie has been experiencing problems with songs disappearing. These issues now seems to be fixed, but still verifying the fix. If you find anything strange, please email admin@chordie.com.


Airproofing  Leo Kottke

Subject: Re: REQ:"Air Proofing" by Leo Kottke
This may still need some "work"..... having the transcription
or a reasonable facsimile thereof throws me up against the
brick wall of my own limitations. Enjoy !!!
"Airproofing" by Leo Kottke on "Leo Kottke"
[A]  
 
 e-|-----|--------------------------|--------------------------|
 B-|-----|--------------------------|--------------------------|
 G-|-----|--0-----2-----0-----------|--0-----------0-----------|
 D-|--2--|-----------------2-----2--|-----2-----2-----2-----2--|
 A-|-----|--0-----------------------|--0-----------------------|
 E-|-----|--------2-----0-----2-----|--------2-----0-----2-----|

. 1 . 2 . 3 . 4 . 1 . 2 . 3 . 4 .
 
 e-|--------------------------|--------------------------|
 B-|--------------------------|--------------------------|
 G-|--0-----------0-----------|--0-----------0-----------|
 D-|-----2-----2-----2-----2--|-----2-----2-----2-----0--|
 A-|--0-----------------------|--0-----------------------|
 E-|--------2-----0-----2-----|--------2-----0-----2-----|

1 . 2 . 3 . 4 . 1 . 2 . 3 . 4 .
[D]  
 
 e-|--------------------------|--------------------------|
 B-|--------------------------|--------------------------|
 G-|--0-----2-----2-----------|--2-----------2-----------|
 D-|-----------0-----0-----0--|-----0-----0-----0-----2--|
 A-|--0-----------------------|--0-----------------------|
 E-|--------2-----0-----2-----|--------2-----0-----2-----|

1 . 2 . 3 . 4 . 1 . 2 . 3 . 4 .
[A]  
 
 e-|--------------------------|--------------------------|
 B-|--------------------------|--------------------------|
 G-|--0-----------0-----------|--0-----------0-----------|
 D-|-----2-----2-----2-----2--|-----2-----2-----2-----2--|
 A-|--0-----------------------|--0-----------------------|
 E-|--------2-----0-----2-----|--------2-----0-----2-----|

1 . 2 . 3 . 4 . 1 . 2 . 3 . 4 .
[E] [D7]  
 
 e-|--------------------------|--------------------------|
 B-|--------------------------|--1-----------------------|
 G-|--0-h1-----------------0?-|-----2--------------------|
 D-|----h2--------------2-----|--------?--------------2--|
 A-|--------------2-h4--------|-----------0--3-p2--0-----|
 E-|--0-----3-h4--------------|--------------------------|

1 . 2 . 3 . 4 . 1 . 2 . 3 . 4 .
[A]  
 
 e-|--------------------------|--------------------------|
 B-|--------------------------|--------------------------|
 G-|--0-----------0-----------|--0-----------0-----------|
 D-|-----2-----2-----2-----2--|-----2-----2-----2-----2--|
 A-|--0-----------------------|--0-----------------------|
 E-|--------2-----0-----2-----|--------2-----0-----2-----|

1 . 2 . 3 . 4 . 1 . 2 . 3 . 4 .
*A7
 
 e-|--------------------------|--------------------------|
 B-|--5\(2)-------2-----------|--2-----------2-----------|
 G-|--------------0-----------|--0-----------0-----------|
 D-|--5\(2)----2-----2-----2--|-----2-----2-----2-----2--|
 A-|--------------------------|--0-----------------------|
 E-|--------2-----0-----2-----|--------2-----0-----2-----|

1 . 2 . 3 . 4 . 1 . 2 . 3 . 4 .
 
 e-|--------------------------|--------------------------|
 B-|--5\(2)-------2-----------|--2-----------2-----------|
 G-|--------------0-----------|--0-----------0-----------|
 D-|--5\(2)----2-----2-----2--|-----2-----2-----2-----2--|
 A-|--------------------------|--0-----------------------|
 E-|--------2-----0-----2-----|--------2-----0-----2-----|

1 . 2 . 3 . 4 . 1 . 2 . 3 . 4 .
*D7/E
 
 e-|--------------------------|--------------------------|
 B-|--5\(1)-------1-----------|--1-----------1-----------|
 G-|--6\(2)-------2-----------|--2-----------2-----------|
 D-|-----------0-----0-----0--|-----0-----0-----0-----2--|
 A-|--------------------------|--0-----------------------|
 E-|--------2-----0-----2-----|--------2-----0-----2-----|

1 . 2 . 3 . 4 . 1 . 2 . 3 . 4 .
[A7]  
 
 e-|--------------------------|--------------------------|
 B-|--5\(2)-------2-----------|--5\(2)-------2-----------|
 G-|--------------0-----------|--------------0-----------|
 D-|--5\(2)----2-----2-----2--|--5\(2)----2-----2-----2--|
 A-|--------------------------|--------------------------|
 E-|--------2-----0-----2-----|--------2-----0-----2-----|

1 . 2 . 3 . 4 . 1 . 2 . 3 . 4 .
[E] [D7]  
 
 e-|--------------------------|--------------------------|
 B-|--------------------------|--1-----1-----------------|
 G-|--0-h1-----------------0?-|--2-----2-----------------|
 D-|----h2--------------2-----|-----?-----------------2--|
 A-|--------------2-h4--------|-----------0--3-p2--0-----|
 E-|--0-----3-h4--------------|--------------------------|

1 . 2 . 3 . 4 . 1 . 2 . 3 . 4 .
[A]  
 
 e-|--------------------------|--------------------------|
 B-|--------------------------|--------------------------|
 G-|--0-----------0-----------|--0-----------0-----------|
 D-|-----2-----2-----2-----2--|-----2-----2-----2-----2--|
 A-|--0-----------------------|--0-----------------------|
 E-|--------2-----0-----2-----|--------2-----0-----2-----|

1 . 2 . 3 . 4 . 1 . 2 . 3 . 4 .
[E]  
 
 e-||----------------------------|----------------------------||
 B-||----------------------------|----------------------------||
 G-||*---------------------------|---------------------------*||
 D-||*---------2-----------------|--------2------------------*||
 A-||-------2-----------2--4-h5--|-----2-----4-h5--5--4--2----||
 E-||----0--------3-h4-----------|--0-------------------------||

1 . 2 . 3 . 4 . 1 . 2 . 3 . 4 .
[A]  
 
 e-||----------------------------|--------------------------|
 B-||----------------------------|--------------------------|
 G-||*---------2-----------------|--------2-----------------|
 D-||*------2-----------2--4-h5--|-----2-----4-h5--5--4--2--|
 A-||----0--------3-h4-----------|--0-----------------------|
 E-||----------------------------|--------------------------|

1 . 2 . 3 . 4 . 1 . 2 . 3 . 4 .
[E]  
 
 e-|--------------------------|----------------------------||
 B-|--------------------------|----------------------------||
 G-|--------------------------|---------------------------*||
 D-|--------2-----------------|--------2------------------*||
 A-|-----2-----------2--4-h5--|-----2-----4-h5--5--4--2----||
 E-|--0--------3-h4-----------|--0-------------------------||

1 . 2 . 3 . 4 . 1 . 2 . 3 . 4 .
[A7] [D9]  
 
 e-|-----------------0--------|-----------------0--------|
 B-|-----2--------------------|--------------------------|
 G-|-----0--------------------|-----2-----2-----------2--|
 D-|-----2-----2-----------2--|--------------------------|
 A-|--0-----------0-----0-----|--3-----------3-----3-----|
 E-|--------2-----------------|--------2-----------------|

1 . 2 . 3 . 4 . 1 . 2 . 3 . 4 .
[B7]  
 
 e-|----------------0---------|-----------7-----7--------|
 B-|--------------------------|-----------7-----7-----1--|
 G-|-----2-----2-----------2--|-----------8-----8--------|
 D-|-----1--------------1-----|-----------9-----9-----1--|
 A-|--2-----------2-----------|--------------------------|
 E-|--------2-----------------|--2----/7-----7-----------|

1 . 2 . 3 . 4 . 1 . 2 . 3 . 4 .
[A]  
 
 e-|--------------------------|--------------------------|
 B-|-/2--------2-----------2--|-----2-----------2-----1--|
 G-|-----------0-----------0--|-----0-----------0--------|
 D-|-/2--2-----2-----2-----2--|-----2-----2-----2-----1--|
 A-|--0-----------------------|--0-----------------------|
 E-|--------2-----0-----2-----|--------2-----0-----2-----|

1 . 2 . 3 . 4 . 1 . 2 . 3 . 4 .
[A]  
 
 e-|--------------------------|--------------------------|
 B-|-/2--------2-----------2--|-----2-----------2--------|
 G-|-----------0-----------0--|-----0-----------0--------|
 D-|-/2--2-----2-----2-----2--|-----2-----2-----2-----2--|
 A-|--0-----------------------|--0-----------------------|
 E-|--------2-----0-----2-----|--------2-----0-----2-----|

1 . 2 . 3 . 4 . 1 . 2 . 3 . 4 .
[E7]  
 
 e-|--------------------------|--------------------------|
 B-|--------------------2--2--|--------------------2--2--|
 G-|--------------------3--3--|--------------------3--3--|
 D-|--------------------0--0--|--------------------0--0--|
 A-|--2-h4--4--4--4-/5--5--5--|--4-p2--2--2--4-/5--5--5--|
 E-|--0-----0--0--------------|--0-----0--0--------------|

1 . 2 . 3 . 4 . 1 . 2 . 3 . 4 .
[E7]  
 
 e-|--------------------------|--------------------------|
 B-|--------------------2--2--|-----------------------1--|
 G-|--------------------3--3--|--------------------------|
 D-|--------------------0--0--|-----------------------1--|
 A-|--4-p2--2--2--4-/5--5--5--|--4-p2--2--2--4-p2--2-----|
 E-|--0-----0--0--------------|--0-----0--0--0-----------|

1 . 2 . 3 . 4 . 1 . 2 . 3 . 4 .
[A]  
 
 e-|--------------------------|--------------------------|
 B-|-/2--------2-----------2--|-----2-----------2-----1--|
 G-|-----------0-----------0--|-----0-----------0--------|
 D-|-/2--2-----2-----2-----2--|-----2-----2-----2-----1--|
 A-|--0-----------------------|--0-----------------------|
 E-|--------2-----0-----2-----|--------2-----0-----2-----|

1 . 2 . 3 . 4 . 1 . 2 . 3 . 4 .
[A]  
 
 e-|--------------------------|--------------------------|
 B-|-/2--------2-----------2--|-----2-----------2--------|
 G-|-----------0-----------0--|-----0-----------0--------|
 D-|-/2--2-----2-----2-----2--|-----2-----2-----2-----2--|
 A-|--0-----------------------|--0-----------------------|
 E-|--------2-----0-----2-----|--------2-----0-----2-----|

1 . 2 . 3 . 4 . 1 . 2 . 3 . 4 .
[A7] [D9]  
 
 e-|-----------------0--------|-----------------0--------|
 B-|-----2--------------------|--------------------------|
 G-|-----0--------------------|-----2-----2-----------2--|
 D-|-----2-----2-----------2--|--------------------------|
 A-|--0-----------0-----0-----|--3-----------3-----3-----|
 E-|--------2-----------------|--------2-----------------|

1 . 2 . 3 . 4 . 1 . 2 . 3 . 4 .
[B7]  
 
 e-|----------------0---------|-----------7-----7--------|
 B-|--------------------------|-----------7-----7--------|
 G-|-----2-----2-----------2--|-----------8-----8--------|
 D-|-----1--------------1-----|-----------9-----9--------|
 A-|--2-----------2-----------|-----------------------6--|
 E-|--------2-----------------|--2----/7-----7-----------|

1 . 2 . 3 . 4 . 1 . 2 . 3 . 4 .
BRIDGE:
[E]  
 
 e-|--------------------------|--------------------------|
 B-|--------------------------|--------------------------|
 G-|--------------------------|--------------------------|
 D-|--------------------------|--------------------------|
 A-|----h7--7--------6-h7--7--|-----6----h7--7--------6--|
 E-|--0-----0-----0-----0-----|--0-----0-----0-----0-----|

1 . 2 . 3 . 4 . 1 . 2 . 3 . 4 .
 
 e-|--------------------------|--------------------------|
 B-|--------------------------|--------------------------|
 G-|--------------------------|--------------------------|
 D-|--------------------------|--------------------------|
 A-|-h7--7-----6-h7--7--------|-----6----h7--7-----------|
 E-|--0-----0-----0-----0-----|--0-----0-----0-----0-----|

1 . 2 . 3 . 4 . 1 . 2 . 3 . 4 .
[A7]  
 
 e-|--------------------------|--------------------------|
 B-|--------------------------|--------------------------|
 G-|--------------------------|--------------------------|
 D-|-----4-h5--5-----4-h5--5--|-----4-h5--5--------------|
 A-|--0-----------0-----0-----|--------0--------------6--|
 E-|--------0-----------------|--0-----------0-----0-----|

1 . 2 . 3 . 4 . 1 . 2 . 3 . 4 .
[E]  
 
 e-|--------------------------|--------------------------|
 B-|--------------------------|--------------------------|
 G-|--------------------------|--------------------------|
 D-|--------------------------|--------------------------|
 A-|-h7--7-----6-h7--7--------|-----6----h7--7-----------|
 E-|--0-----0-----0-----0-----|--0-----0-----0-----0-----|

1 . 2 . 3 . 4 . 1 . 2 . 3 . 4 .
[A7]  
 
 e-|--------------------------|--------------------------|
 B-|--------------------------|--------------------------|
 G-|--------------------------|--------------------------|
 D-|-----4-h5--5-----4-h5--5--|-----4-h5--5--------------|
 A-|--0-----------0-----0-----|--------0--------------6--|
 E-|--------0-----------------|--0-----------0-----0-----|

1 . 2 . 3 . 4 . 1 . 2 . 3 . 4 .
[E]  
 
 e-|--------------------------|--------------------------|
 B-|--------------------------|--------------------------|
 G-|--------------------------|--------------------------|
 D-|--------------------------|--------------------------|
 A-|-h7--7-----6-h7--7--------|-----6----h7--7-----7-\4--|
 E-|--0-----0-----0-----0-----|--0-----0-----0-----------|

1 . 2 . 3 . 4 . 1 . 2 . 3 . 4 .
N/C Repeat 4x
 
 e-||----------------------------|----------------------------||
 B-||----------.--------.--------|--.-------------------------||
 G-||*---------5--------5--------|--5--------5-------(5)-----*||
 D-||*---------5--------5--------|--5--------5-------(5)-----*||
 A-||----0-----0-----0-----------|--0-----------0-------------||
 E-||----------------------0-----|--------0-----------0-------||

1 . 2 . 3 . 4 . 1 . 2 . 3 . 4 .
 
 e-|--------------------------|--------------------------|
 B-|--------------------------|--------------------------|
 G-|-----5--------x-----------|--------------------------|
 D-|-----5--------x-----------|--------------------------|
 A-|--0-----0----(0)---(0)----|-(0)---(0)---(0)---(0)----|
 E-|-----------0-(0)---(0)----|-(0)---(0)---(0)---(0)----|

1 . 2 . 3 . 4 . 1 . 2 . 3 . 4 .
A ad lib
 
 e-||----------------------------|----------------------------||
 B-||----------------------------|----------------------------||
 G-||*---------------------------|---------------------------*||
 D-||*-----6h7---7h8---7h8---6h7-|----7h8---6h7---6h7---6h7--*||
 A-||----0-----0-----0-----0-----|--0-----0-----0-----0-------||
 E-||----------------------------|----------------------------||

1 . 2 . 3 . 4 . 1 . 2 . 3 . 4 .
 
 e-|--------------------------|
 B-|--------------------------|
 G-|--------------------------|
 D-|----5h6---4h5---3h4---2h3-|
 A-|--0-----0-----0-----0-----|
 E-|--------------------------|

1 . 2 . 3 . 4 .
 
 e-|--------------------------|--------------------------|
 B-|--------------------------|--------------------------|
 G-|--------------------------|--------------------------|
 D-|--------------------------|--------------------------|
 A-|----6h7---7h8---7h8---6h7-|----7h8---6h7---6h7---6h7-|
 E-|--0-----0-----0-----0-----|--0-----0-----0-----0-----|

1 . 2 . 3 . 4 . 1 . 2 . 3 . 4 .
[E]  
 
 e-|--------------------------|--------------------------|
 B-|--------------------------|--------------------------|
 G-|--------------------------|--------------------------|
 D-|--------2-----------------|--------2-----------------|
 A-|-----2-----------2--4-h5--|-----2-----4-h5--5--4--2--|
 E-|--0--------3-h4-----------|--0-----------------------|

1 . 2 . 3 . 4 . 1 . 2 . 3 . 4 .
[A]  
 
 e-|--------------------------|--------------------------|
 B-|--------------------------|--------------------------|
 G-|--------2-----------------|--------2-----------------|
 D-|-----2-----------2--4-h5--|-----2-----4-h5--5--4--2--|
 A-|--0--------3-h4-----------|--0-----------------------|
 E-|--------------------------|--------------------------|

1 . 2 . 3 . 4 . 1 . 2 . 3 . 4 .
[D7]  
 
 e-|--------------------------|--------------------------|
 B-|--1--------1-----------1--|-----1-----------1--------|
 G-|--2--------2-----------2--|-----2-----------2--------|
 D-|-----0-----0-----0-----0--|-----0-----0-----0-----2--|
 A-|--0-----------------------|--0-----------------------|
 E-|--------2-----0-----2-----|--------2-----0-----2-----|

1 . 2 . 3 . 4 . 1 . 2 . 3 . 4 .
[A]  
 
 e-||----------------------------|----------------------------||
 B-||----------------------------|----------------------------||
 G-||*---0-----------0-----------|--0-----------0------------*||
 D-||*------2-----2-----2-----2--|-----2-----2-----2-----0---*||
 A-||----0-----------------------|--0-------------------------||
 E-||----------2-----0-----2-----|--------2-----0-----2-------||

1 . 2 . 3 . 4 . 1 . 2 . 3 . 4 .
[E] [D7]  
 
 e-|--------------------------|--------------------------|
 B-|--------------------------|--1-----------------------|
 G-|--0-h1-----------------0?-|-----2--------------------|
 D-|----h2--------------2-----|--------?--------------2--|
 A-|--------------2-h4--------|-----------0--3-p2--0-----|
 E-|--0-----3-h4--------------|--------------------------|

1 . 2 . 3 . 4 . 1 . 2 . 3 . 4 .
[A]  
 
 e-|--------------------------|--------------------------|
 B-|--------------------------|--------------------------|
 G-|--0-----------0-----------|--0-----------0-----------|
 D-|-----2-----2-----2-----2--|-----2-----2-----2-----2--|
 A-|--0-----------------------|--0-----------------------|
 E-|--------2-----0-----2-----|--------2-----0-----2-----|

1 . 2 . 3 . 4 . 1 . 2 . 3 . 4 .
*A7
 
 e-|--------------------------|--------------------------|
 B-|--5\(2)-------2-----------|--2-----------2-----------|
 G-|--------------0-----------|--0-----------0-----------|
 D-|--5\(2)----2-----2-----2--|-----2-----2-----2-----2--|
 A-|--------------------------|--0-----------------------|
 E-|--------2-----0-----2-----|--------2-----0-----2-----|

1 . 2 . 3 . 4 . 1 . 2 . 3 . 4 .
 
 e-|--------------------------|--------------------------|
 B-|--5\(2)-------2-----------|--2-----------2-----------|
 G-|--------------0-----------|--0-----------0-----------|
 D-|--5\(2)----2-----2-----2--|-----2-----2-----2-----2--|
 A-|--------------------------|--0-----------------------|
 E-|--------2-----0-----2-----|--------2-----0-----2-----|

1 . 2 . 3 . 4 . 1 . 2 . 3 . 4 .
*D7/E
 
 e-|--------------------------|--------------------------|
 B-|--5\(1)-------1-----------|--1-----------1-----------|
 G-|--6\(2)-------2-----------|--2-----------2-----------|
 D-|-----------0-----0-----0--|-----0-----0-----0-----2--|
 A-|--------------------------|--0-----------------------|
 E-|--------2-----0-----2-----|--------2-----0-----2-----|

1 . 2 . 3 . 4 . 1 . 2 . 3 . 4 .
[A7]  
 
 e-|--------------------------|--------------------------|
 B-|--5\(2)-------2-----------|--5\(2)-------2-----------|
 G-|--------------0-----------|--------------0-----------|
 D-|--5\(2)----2-----2-----2--|--5\(2)----2-----2-----2--|
 A-|--------------------------|--------------------------|
 E-|--------2-----0-----2-----|--------2-----0-----2-----|

1 . 2 . 3 . 4 . 1 . 2 . 3 . 4 .
[E] [D7]  
 
 e-|--------------------------|--------------------------|
 B-|--------------------------|--1-----1-----------------|
 G-|--0-h1-----------------0?-|--2-----2-----------------|
 D-|----h2--------------2-----|-----?-----------------2--|
 A-|--------------2-h4--------|-----------0--3-p2--0-----|
 E-|--0-----3-h4--------------|--------------------------|

1 . 2 . 3 . 4 . 1 . 2 . 3 . 4 .
[A]  
 
 e-|--------------------------|--------------------------|
 B-|--------------------------|-----------------------13-|
 G-|--0-----------0-----------|--0-----------0-----------|
 D-|-----2-----2-----2-----2--|-----2-----2-----2-----13-|
 A-|--0-----------------------|--0-----------------------|
 E-|--------2-----0-----2-----|--------2-----0-----2-----|

1 . 2 . 3 . 4 . 1 . 2 . 3 . 4 .
Repeat 3x
 
 e-||---------------------------|---------------------------||
 B-||--/14-------14----------14-|-----14----------14----13--||
 G-||*-----------0-----------0--|-----0-----------0--------*||
 D-||*-/14-14----14----14----14-|-----14----14----14----13-*||
 A-||---0-----------------------|--0------------------------||
 E-||---------14----0-----14----|--------14----0-----14-----||

1 . 2 . 3 . 4 . 1 . 2 . 3 . 4 .
 
 e-|--------------------------|--------------------------|
 B-|-/14-------14-------------|--2-----------------------|
 G-|-----------0--------------|--0-----------------------|
 D-|-/14-14----14----14----2--|--2-----------------------|
 A-|--0-----------------------|--0-----------------------|
 E-|--------14----0-----2-----|--------------------------|

1 . 2 . 3 . 4 . 1 . 2 . 3 . 4 .
~~~~~~~~~~~~~~~~~~~~~~~~~~~~~~~~~~~~~~~~~~~~~~~~~~~~~~~~~~
~ jgormley@aol.com(JPGormley) " It's so hard to love someone,
~
~ joegrmly@prostar.com(Floppy Joe) that don't love you.
~
~ Joe Gormley That ain't satisfaction,
~
~ 1515 S. Garfield I don't
care what you do. " ~
~ Tacoma WA 98444 from 'Death Letter' by Son
House ~
~~~~~~~~~~~~~~~~~~~~~~~~~~~~~~~~~~~~~~~~~~~~~~~~~~~~~~~~~~

Important: The song above is NOT stored on the Chordie server. The original song is hosted at www.guitartabs.cc. Chordie works as a search engine and provides on-the-fly formatting. Chordie does not index songs against artists'/composers' will. To remove this song please click here.

Text color:
Chord color:
Chord grids: 
Font size:    
Page size: 

A A7 B7 D D7 D9 E E7
Rate #1 of 2 versions

Jango Player

Login - add to songbook

SHARE PAGE  




You need to log in to post comments