Guitar Tabs, Chords and Lyrics
Server problems seems to be fixed. Chordie has been experiencing problems with songs disappearing. These issues now seems to be fixed, but still verifying the fix. If you find anything strange, please email admin@chordie.com.


Jack Fig  Leo Kottke

Gtr. 1 (12 Str. acous.)
[G]S S S S S S S S S S S S S S S S
 
 A#||--------------------------------------------------------|
 G ||--------------------------------------------------------|
 D#||--------------------------0---0---0---0---0---0---0---0-|
 A#||--------------------------------------------------------|
 D#||--0-------------------------0---0---0---0---0---0---0---|
 A#||--------------------------------------------------------|

S S S S S S S S S S S S S S S S S S S S S S S S S S S S S S S S
 
 --9---------------9---------------|--9-----9-----9-----9-----9-------|
 --8---------------8---------------|--8-----8-----8-----8-----8-------|
 --------0---0---0-------0---0---0-|----0-------0---0-------0---0---0-|
 ----0---------------0-------------|------------------------------0---|
 ------0---0---0-------0---0---0---|------0---0---0---0---0---0-------|
 ----------------------------------|----------------------------------|

[G]S S S S S S S S S S S S [D]S S S S
 
 --10s-12---10-----9-----10-----5s-7---7-|
 --10s-12---10-----8-----10-----5s-7---7-|
 ----------------0-----------------------|
 --------------------0--------0----------|
 ---0-----0----0-------0----0------------|
 ------------------------------------0---|

[G]S S S S S S S S S S S S S S E
 
 --7s-12---10-----9s-10---5---7s-9---9--|
 --7s-12---10-----8s-10---5---7s-8---8--|
 ----------------------------------0----|
 ---------------0-----0-----0----0------|
 --0-----0----0---------0------------0--|
 ---------------------------------------|

E S S S S S S S S S S S S S S
 
 --10g12----10-----9-----10-----5s-7-----|
 --10g12----10-----8-----10-----5s-7---7-|
 -----------10---0------------0--------0-|
 --------------------0-----------------0-|
 ---------0----0-------0----0--------0---|
 ----------------------------------------|

S S S S S S S S S S S S S S E S S S S S S S S S S E S S
 
 ----7g12---10-----9s-10---5---7-----9--|----9-----9-----9-----9\------|
 ----7g12---10-----8s-10---5---7-----8--|----8-----8-----8-----8\----0-|
 ----------------0-----0----------------|------------0-------0---------|
 ----------------------------0-----0----|--------0-----------------0---|
 --0------0----0---------0---0---0---0--|--0---0---0---0---0---0-------|
 ---------------------------------------|------------------------------|

[F] [C] PH PH
S S S S S S S S S S S S S S S S S S S S S S S S S S S S S S S S
 
 ------7-----7-----7-----7---------|--------5-------5---------5---------5---|
 ----x---6-------6---6-------6-----|------5-----------5-----5---------5---0-|
 ------5-------5-------5---------0-|----------5---5-----5-----5-5-----0-|
 ------------------------------0---|--------------------------------------0-|
 --0-------0-------0-------0-------|--4g5-----------------------------------|
 ----------------------------------|------------5---------------------------|

[F] [C] PH PH
S S S S S S S S S S S S S S S S S S S S S S S S S S S S S S S S
 
 ------7-----7-----7-----7---------|----------------5---------5---------5---|
 ----6---6-------6---6-------6-----|------5---5-------5-----5---------5---0-|
 --------------5-------5---------0-|--------------5-----5-----5-5-----0-|
 ------0-----------------------0---|--------5-------5---------5-----------0-|
 --0-------0-------0-------0-------|--4g5-------5---------------------------|
 ----------------------------------|----------------------------------------|

[G]S S S S S S S S S S S S S S S S
 
 ------9-----9-----9-----9---------|
 ----8-----------8---8-------8-----|
 ------7-------7-------7---------0-|
 --------0---------------------0---|
 --0-------0-------0-------0-------|
 ----------------------------------|

[F]S S S S S S S S S S S S S S S S
 
 ----------------------------10----10---------------|
 -------10----10----------10----10----------10------|
 -------------------10----------------10----------0-|
 ----------10----------10----------10----------10---|
 --9g10----------------------10----------10---------|
 ----------------10---------------------------------|

[Bb]S S S S S S S S S S S S S S S S
 
 --------12------12------12-------12-----------|
 -----11--------------11----11---------11------|
 -----10----10-----------------10-----------10-|
 ---------0---------0---------------------0----|
 --0-----------0----------0----------0---------|
 ----------------------------------------------|

[G]E S S S S S S S S S S S S S S
 
 --12g14--12-12g10-------------------10----------|
 --------------------12-----10s-12----------12---|
 -------------------------0---------------0----0-|
 -----------------------0----------0-------------|
 ------------------0---------0----------0--------|
 ------------------------------------------------|

S S S S S S S S S S S S S S S S S S S S S S S S S S S S
 
 -----------10------10-13-----12---10---------|-------------------------------|
 --10s-12--------12---------0----0----12---10-|-------------------------------|
 ---------------------------------------------|------12-10---9---0------------|
 ---------0--------------------0---------0----|----0---------------12-10s-9---|
 ---0----------0----------0---------0---------|--0---------0---0------------0-|
 ---------------------------------------------|-------------------------------|

[C] [D] NH[G]
E S S S S S S S S S S E S S S S S S S S S S S S S S S S S S
 
 ---------------------------------|--------5-------7-------9-----7---5\-----|
 ---------------------------------|--------------------------0------------0-|
 -------------------------------0-|------5---5---------7------------------|
 --9----9-----9-----9-----9\------|------------------7-----0---0--------0---|
 -----0-----0-----0-----0-----0---|--3g5-------5g7---------0-------0--------|
 ---------0-----0-----0-----------|-----------------------------------------|

T= Thumb on 6th string
[C]S S S S [D]S S S S [G]S S S S S S S S
 
 -----------------------------------------5-----5-----0---|
 ---------------------------1s-3---3h-5-----0-------0-----|
 -------------------------0-------------0-----0---------0-|
 ---------------------------2s-4--------------------------|
 --------------------------------0--------0-------0-------|
 --2----------------------------------4-------------------|

[C] [D] NH[G] [C] [D] [G]
S S S S S S S S S S S S S S S S S S S S S S S S S S S S S S S S
 
 --------5-------7-------9-----7---5\-----|--------------------5-----5-----5---|
 ---------------------------------------0-|------1s-3---3h-5---------0---0-x---|
 ------5---5---------7---0--------------|----0-------------0-----------0-4-0-|
 ----------5-------7-----0---0--------0---|------2s-4----------0-0-0-------0-0-|
 --4g5-------5g7---------0-------0--------|-----------0--------0-------0-------|
 -----------------------------------------|--2-------------4-------------------|

^ [G] [C]
S S S S S S S S S S S S S S S S S S S S S S S S
 
 ----5-----5--------|----------------------------------|
 ----------x--------|----------------------------------|
 --------4-4s-7-----|--7-----7---7-----5-----7---5-----|
 ------0---0----0-0-|----0-----------0---5-----------0-|
 --0-------0--------|------0-------0-------5-------5---|
 -------------------|----------0---------------5-------|

[G]S S S S S S S S S S S S S S S S S S S S S S S S S S S S S S S S
 
 ------------------------------------|-----------------------------------------|
 ------------------------------------|-------3-------------------1-------------|
 --4-----4---2--------0-2---0------0-|--2s-4---4s-2-0------0h-2p-0-------0-----|
 ----0-----------0h-2-----2---0h-2---|----------------0h-2-------2p-0h-2-----0-|
 ------0-------0--------0---0----0---|--0----0----0--------------------0---0---|
 ----------0--------2----------------|-----------------------------------------|

S S S S S S S S S S S S S S S S S S S S S S S S S S S S S S S S
 
 -----------------------------------|----------------------------------|
 -----------------------------------|----------------------------------|
 ------2-----2----------------------|--7-----7---7-----x-----7---5-----|
 ----0---0----------0---0---0---0---|----0-----------0---5-----------0-|
 --2---2-------2s-0-----------0---0-|------0-------0-------5-------5---|
 --0-------0----------2---4---------|----------0---------------5-------|

S S S S S S S S S S S S S S S S S S S S S S S S S S S S S S S S
 
 -------------------------------------|-------0-------------------------------|
 -------------------------------------|--1s-3---------------1-----------------|
 --4-----4---2--------0h-2---0------0-|--2s-4---4s-2-0------0h-2--------0-----|
 ----0-----------0h-2------2---0h-2---|--2s-4----------0h-2--------0h-2-----0-|
 ------0-------0----0----0--------0---|------------0-------------0--------0---|
 ----------0--------------------------|---------------------------------------|

( Tab from: http://www.guitartabs.cc/tabs/l/leo_kottke/jack_fig_tab.html )
NH
S S S S S S S S S S E E S S S S S S S S S S S S S S S S S S
 
 --------------------------------|--------5-------7-----9-9-----7s-5-5\------|
 --------------------------------|----------------------------------------0h-|
 ------2-----2-------------------|------5---5---------7---0----------------|
 ----0---0-------0---0-------0---|------------------7---------0---------0----|
 --2---2-------2----------0----0-|--4g5-------5g7---------0------------------|
 --0---0---0-------2---4---------|-------------------------------------------|

S S S S S S S S S S S S S S S S S S S S S S S S S S S S S S S S
 
 --------------------5-----5---------|--------5-------7---9-9-----7s-5-5\------|
 --1---1s-3---3h-5-----0-------0-----|------------------------0-------------0h-|
 ----0-------------0-----0-----------|------5---5---------0--------------------|
 ------2s-4----------------------0---|------------------7-------0---------0----|
 -----------0--------0-------0-----0-|--3g5-------5g7-------0--------0---------|
 --2-------------4-------------------|-----------------------------------------|

S S S S S S S S S S S S S S S S S S S S S S S S
 
 --------------------5-----9-----9---|----9-----9-------|
 --1---1s-3---3h-5---0-----8-----8---|----8-----8-------|
 ----0-------------------0-----0---0-|--------0---0---0-|
 ------2s-4------------0-------------|------0-------0---|
 -----------0------0---------0---0---|--0-------0-------|
 --2-------------4-------------------|------------------|

S S S S S S S S S S S S S S S S
 
 --9s-12---10-----9-----10-----5s-7---7-|
 --8s-12---10-----8-----10-----5s-7---7-|
 ---------------0------------0----------|
 -------------0-----0-------------------|
 --------0------------0----0------------|
 -----------------------------------0---|

E S S S S S S S S S S S S E
 
 --7g12----10-----9s-10---5s-7-7s-9---9--|
 --7g12----10-----8s-10---5s-7-7s-8---8--|
 ----------------------------------------|
 ---------------0-----0-------------0----|
 --------0--------------0------0------0--|
 -------------0--------------------------|

E S S S S S S S S S S S S S S E S S S S S S S S S S S S E
 
 --9g12----10-----9-----10-----5s-7-----|--7g12----10-----9s-10---5---7-----9--|
 --8g12----10-----8-----10-----5s-7-----|--7g12----10-----8s-10---5---7-----8--|
 -----------0----------------0----------|-----------0--------------------------|
 ---------------0---0-----------------0-|---------------0-----0-----------0----|
 --------0----0-------0----0--------0---|--------0----0---------0-------0---0--|
 ------------------------------0--------|---------------------------0---0------|

S S S S S S S S S S S S S S E S S S S S S S S S S S S S S
 
 ----9-----9-----9-----9-------|--9g12----12-----12-----12-----12-------|
 ----8-----8-----8-----8-------|--8g12----12-----12-----12-----12-------|
 ----0---0---0-----------0-----|---------------0----0-------------0---0-|
 --------------------0-------0-|-----------------------------0----------|
 --0---0---0---0---0---0---0---|-------------0----------------------0---|
 ------------------------------|--------0---------0---0----0----0---0---|

E S S S S S S S S S S S S S S S S S S S S S S E S S S S S S
 
 --17----17-----17-----17-----17-------|--17-----17-----17---17----17\---------|
 ---0-----0------0------0------0-------|---0------0------0----0-----0----------|
 -------------0----0--------0----0---0-|-----0-------------------------0-----0-|
 --------------------------------------|--------------0----0-----0---------0---|
 -----------0----0---0----0----0---0---|-------0----0----0----0----------0-----|
 ------0-------------------------------|---------------------------------------|

S S S S S S S S S S S S S S S S
 
 --------5---5g7-7-----9-----7s-5-5------|
 ---------------------------------0---0h-|
 ------5-------------7---0------------0--|
 --------5-5-------7-------0--------0----|
 --4g5-------5g7-------0--------0--------|
 ----------------------------------------|

S S S S S S S S S S S S S S S S
 
 --------------------5-----5-(5)\-------|
 --1---1s-3---3h-5-0---0---0------0-----|
 ----0--------0----0-----0------------0-|
 ------2s-4----------0--------------0---|
 -----------0-----------------0---------|
 --2-------------5----------------------|

NH
S S S S S S S S S S S S S S S S S S S S S S S S S S S S S S S S
 
 --------5---5g7-7-------9-----7s-5-5------|--------------------5-----5-------0-|
 --4g5---------------------0--------0---0h-|--1---1s-3---3h-5-----0---0---------|
 ------5---5-----7---7---0---------------|----0-------------0-----0-----0-----|
 ------5-----------7---------0--------0----|------2s-4----------------------0---|
 --4g5-------5g7---------0--------0--------|-----------0--------0-------0-------|
 ------------------------------------------|--2--------4----4-------------------|

NH
S S S S S S S S S S S S S S S S
 
 --7s-12------10-----9-----10-----5s-7---7-|
 --7s-12------10-----8-----10-----5s-7---7-|
 ------------------0---0-------------------|
 ----------------------0--------0----------|
 --------12----0-------0----0------------|
 --------------------------------------0---|

NH
S S S S S S S S S S S S S S S S
 
 --7s-12------10-----9-----10-----5s-7---7-|
 --7s-12------10-----8-----10-----5s-7---7-|
 ------------------0-----------------------|
 ----------------------0--------0----------|
 --------12----0-----0-0----0------------|
 --------------------------------------0---|

E S S S S S S S S S S S S E E S S S S S S S S S S S S S S
 
 --7g12----10-----9s-10---5---7-----9--|--9g12----10-----9-----10-----5s-7-----|
 --7g12----10-----8s-10---5---7-----8--|--8g12----10-----8-----10-----5s-7-----|
 ---------------------0----------------|---------------0---0-------------------|
 ---------------0-----------0----------|----------------------------0--------0-|
 --------0----0---------0---------0-0--|-------------0-------0-------------0---|
 -------------------------------0------|--------0-----------------0------------|

E S S S S S S S S S S S S E S S S S S S S S E S S S S
 
 --7g12----10-----9s-10---5---7-----9--|----9-----9-----9----9---9---|
 --7g12----10-----8s-10---5---7-----8--|----8-----8-----8----8---8---|
 ---------------0-----------------0----|-----------------------------|
 -------------0-------0----------------|--------0---0----------0---0-|
 -----------------------0---0---0------|--0---0---0---0---0------0---|
 --------0-----------------------------|-----------------------------|

E S S S S S S S S S S S S S S E S S S S S S S S S S S S S S
 
 --9g12----12-----12-----12-----12-------|--17----17-----17-----17-----17-------|
 --8g12----12-----12-----12-----12-------|---0-----0--------------------0-------|
 ---------------0----0-------------0---0-|------0------0----0----0---0----0---0-|
 -----------------------------0----------|--------------------------------------|
 -------------0--------------------------|-----------0----0---0----0----0---0---|
 --------0---------0---0----0----0---0---|---0----------------------------------|

^
S S S S S S E H S S S S S S S S S S S S S S S S
 
 --17-----17-----17--17--------|--11g12-----10-----9-----10-----5s-7---7-|
 ----------0------0---0--------|--11g12-----10---0-8-----10-----5s-7---7-|
 -----0--------0------0--------|---------------------0--------0----------|
 ---------------------0--------|----------0----0------------0----------0-|
 -------0----0--------0--------|--------0--------------0-------------0---|
 ------------------------------|-----------------------------------------|

E S S S S S S S S S S S S E E S S S S S S S S S S S S S S
 
 --7g12----10-----9s-10---5---7-----9--|--10g12----10-----9-----10-----5s-7-----|
 --7g12----10-----8s-10---5---7-----8--|--10g12----10-----8-----10-----5s-7-----|
 ---------------0----------------------|-----------------------------0--------0-|
 -------------0-------0-----0-0---0----|---------0------0---0---------------0---|
 --------0--------------0-------0------|----------------------0-----------------|
 --------------------------------------|--------------0------------0------------|

E S S S S S S S S S S S S E S S S S S S S S S S S S S S
 
 --9g12----10-----9s-10---5---7-----9--|----9-----9-----9-----9-------|
 --8g12----10-----8s-10---5---7-----8--|----8-----8-----8-----8-------|
 ---------------------------------0----|--------0---0-------0---0-----|
 ---------------0-----0-----0----------|----------------------------0-|
 --------0--------------0-------0------|--0---0---0---0---0---0---0---|
 -------------0------------------------|------------------------------|

E S S S S S S S S S S E S S S S S S S S S S S S E
 
 --9g12----12-----12-----12-----12\------|------------------2-----4--|
 --8g12----12-----12-----12-----12\------|-------x-0h-1-----------3--|
 ---------------0----0--------0--------0-|--0h-2--------2-------2----|
 ------------------------------------0---|----------------0----------|
 -------------0----0---0----0----0-------|------------0-------0------|
 --------0-------------------------------|---------------------------|

W
 
 --5----------------||
 --0----------------||
 --0----------------||
 --0----------------||
 --0----------------||
 -------------------||

Duration Legend
 
 ---------------

W - whole
H - half
Q - quarter
E - 8th
S - 16th
T - 32nd
X - 64th
. - note dotted
|-n-| - n-tuplets
Tablature Legend
 
 ----------------

L - tied note
x - dead note
g - grace note
(n) - ghost note
> - accentuded note
NH - natural harmonic
AH - artificial harmonic
TH - tapped harmonic
SH - semi harmonic
PH - pitch harmonic
h - hammer on
p - pull off
b - bend
br - bendRelease
pb - preBend
pbr - preBendRelease
brb - bendReleaseBend
\n/ - tremolo bar dip
\n - tremolo bar dive
-/n - tremolo bar Release up
/n\ - tremolo bar inverted dip
/n - tremolo bar return
-\n - tremolo bar Release down
S - shift slide
s - legato slide
/ - slide into from below or out of upwards
\ - slide into from above or out of downwards
~ - vibrato
W - wide vibrato
tr - trill
TP - tremolo picking
T - tapping
S - slap
P - pop
< - fade in
^ - brush up
v - brush down

Important: The song above is NOT stored on the Chordie server. The original song is hosted at www.guitartabs.cc. Chordie works as a search engine and provides on-the-fly formatting. Chordie does not index songs against artists'/composers' will. To remove this song please click here.

Text color:
Chord color:
Chord grids: 
Font size:    
Page size: 

Bb C D F G
Rate #1 of 3 versions

Jango Player

Login - add to songbook

SHARE PAGE  



You need to log in to post comments