Guitar Tabs, Chords and Lyrics
Server problems seems to be fixed. Chordie has been experiencing problems with songs disappearing. These issues now seems to be fixed, but still verifying the fix. If you find anything strange, please email admin@chordie.com.


Don't Be Shy  The Libertines

Track 03 - Don't Be Shy
Tuning - Standard (EADGBe)
Extras - Full Bend=B Half Bend=b
Chords Used:
E7(x,7,9,7,9,x)
E7sus4(x,7,9,7,10,x)
A(5,7,7,6,5,5)
D7sus4(x,5,7,7,8,8)
D7(x,5,7,5,7,x)
A7(5,7,5,6,5,5)
D7*(x,0,0,2,1,2)
D(,x,5,7,7,7,x)
E(0,2,2,1,0,0)
F#(2,4,4,3,2,2)
B(7,9,9,8,7,7)
E7sus2(x,7,9,7,7,7)
A9(x,12,11,12,12,12)
Chorus: E7sus4 E7
[A]Ah, d[D7sus4]on't be sh[A7]y, don't be[D7sus4] shy[A7]
For if you are [D7]shy for tomorrow,
You will be shy for one thousand da[A]ys, he[D7sus4]y,[A7]
[A]Don't [D7sus4]be shy, d[A7]on't be shy[D7sus4],[A7]
Don't let the t[D7]ide of your sorrow,
Drown your nights and flood your da[A]ys.[D7sus4] [A7]
Verse:
D7*
But still it's better to be shy than to be
A drunken old queen who's always
Got to get his awa[A]y[D7sus4] [A]
Pre-Chorus:
[A]But don't be coy with me
[D]I'm too clever to fo[A]llow you down
Into the dark a[D]nd stormy weather,
[A]Brackets wider now so what'[D]s your pleasure
[E]Swallow your pride but please
Don't be shy.
Chorus:
[A]Ah, d[D7sus4]on't be sh[A7]y, don't be[D7sus4] shy[A7]
For if you are [D7]shy for tomorrow,
You will be shy for one thousand da[A]ys, he[D7sus4]y,[A7]
[A]Don't [D7sus4]be shy, d[A7]on't be shy[D7sus4],[A7]
Don't let the t[D7]ide of your sorrow,
Drown your nights and flood your da[A]ys.[D7sus4] [A7]
Bridge:
[A7]And now's your time to shine,
[F#]Dance and hear your song
Or you may [B]wake up one day
In the last chance saloon
To fin[E7]d your last chance
Has been and gone
Chorus:
[A]Ah, d[D7sus4]on't be sh[A7]y, don't be[D7sus4] shy[A7]
For if you are [D7]shy for tomorrow,
You will be shy for one thousand da[A]ys, he[D7sus4]y,[A7]
 
 -----------------------------------------------------------------------------------------

Lead Parts
 
 -----------------------------------------------------------------------------------------

Elec. Gtr 1 Intro
 
 e|------------------------------------------------------------------|
 B|--9--9--x--10-10-9--x-x-9--9--10--9-------------------------------|
 G|--7--7--x--7--7--7--x-x-7--7--7---7-------------------------------|
 D|--9--9--x--9--9--9--x-x-9--9--9---9-------------------------------|
 A|--7--7------------------------------------------------------------|
 E|--------------------------------------0---------------------------|

Elec. Gtr 1 Part after the first chorus and before first verse.
 
 e|-----------5--5---------8--x--x-----5--x--------------------------|
 B|-----------5--5---------8--x--x-----5--x-7--7--7------------------|
 G|-----7-----6--6------------x--x-----6--x-7--7--7----6--6--6--6--6-|
 D|-----5-----7--7------------x--x--7--7--x-7--7--7----7--7--7--7--7-|
 A|--7--7-----7--7-----7------------7--7------------x--7--7--7--7--7-|
 E|--5-----------------5----------------------------x--5--5--5--5--5-|

Elec. Gtr 2 Part after the first chorus and before first verse.
(Make this last as long as the bar above)
 
 e|----------------------------------------------8-------------------|
 B|----------------------------------------------8-------------------|
 G|---6-6-6-6-6--------6--6---------------6--6---6--6----------------|
 D|-----------7---7----7-----7------------7---------7----------------|
 A|--7--------7---7----7-----7------------7---------7----------------|
 E|--5------------5----5-----5-------5--------------5----------------|

Elec. Gtr 1 Interlude
Gtr's 1 and 2 play the interlude parts in unison.
 
 e|----------------8---|---------|------------------|----------------|
 B|----------------8---|---------|------------------|----------------|
 G|--6--6--6--6----7-6-|---6-----|------------------|----------------|
 D|--7--7--7--7------7-|---7-----|------------------|----------------|
 A|--7--7--7--7------7-|---7-----|------------------|----------------|
 E|--5--5--5--5------5-|---5-----|------------------|----------------|

Elec. Gtr 2 Interlude
 
 e|---12---------------|---------|---------------7--|----------------|
 B|---12---10--10/9----|---------|-----9-10--9---7--|-9--10--9--7--7-|
 G|---12---------------|---------|-----------7---7--|-7--7---7--7--7-|
 D|--------------------|---------|--9------------9--|-9--9---9--9--9-|
 A|--------------------|---------|--7---------------|-----------7--7-|
 E|--------------------|---------|------------------|----------------|

Elec. Gtr 1 Interlude Part 2
 
 e|--------------------|--------------------|--------------15----15--|
 B|--------------------|--------------------|--------------14----14--|
 G|--------------------|--------------------|--------------12----12--|
 D|--------------------|--------------------|--------------14----14--|
 A|--------------------|--------------------|------------------------|
 E|--------------------|--------------------|------------------------|

Elec. Gtr 2 Interlude Part 2
 
 e|------12---12---12--|---12-12-12-12-12---|---12---12----12----12--|
 B|--12--12---12---12--|---12-12-12-12-12---|---12---12----12----12--|
 G|--12--12---12---12--|---12-12-12-12-12---|---12---12----12----12--|
 D|--11--11---11---11--|---11-11-11-11-11---|---11---11----11----11--|
 A|--12--12---12---12--|---12-12-12-12-12---|---12---12----12----12--|
 E|--------------------|--------------------|------------------------|

Elec. Gtr 1 Interlude Part 3
 
 e|--------------------|-----------15---15--|----------x-x-x-x-x-x-x-|
 B|--------------------|------14---14---14--|----------x-x-x-x-x-x-x-|
 G|--------------------|------12---12---12--|----------x-x-x-x-x-x-x-|
 D|--------------------|--14--14---14---14--|----------x-x-x-x-x-x-x-|
 A|--------------------|--12--12------------|------------------------|
 E|--------------------|--------------------|------------------------|

Elec. Gtr 2 Interlude Part 3
 
 e|--12-12-12-12-12--0-|--12--12---12---12--|12-12-12-12-12-12-12-12-|
 B|--12-12-12-12-12--0-|--12--12---12---12--|12-12-12-12-12-12-12-12-|
 G|--12-12-12-12-12--0-|--12--12---12---12--|12-12-12-12-12-12-12-12-|
 D|--11-11-11-11-11--0-|--11--11---11---11--|11-11-11-11-11-11-11-11-|
 A|--12-12-12-12-12----|--12--12---12---12--|12-12-12-12-12-12-12-12-|
 E|--------------------|--------------------|------------------------|

Elec. Gtr 1 Interlude Part 4
 
 e|------15--x-15---15-|----15-15-15--x-x--15-15--x-x--15-15--x-x----|
 B|------14--x-14---14-|----14-14-14--x-x--14-14--x-x--14-14--x-x----|
 G|------12--x---------|--------------x-x---------x-x---------x-x----|
 D|--14--14--x---------|--------------x-x---------x-x---------x-x----|
 A|--12----------------|---------------------------------------------|
 E|--------------------|---------------------------------------------|

Elec. Gtr 2 Interlude Part 4
 
 e|--12--12----12---12-|---------------12-12-12-12-12-12-12-12-12----|
 B|--12--12----12---12-|---------------12-12-12-12-12-12-12-12-12----|
 G|--12--12----12---12-|---------------12-12-12-12-12-12-12-12-12----|
 D|--11--11----11---11-|---------------11-11-11-11-11-11-11-11-11----|
 A|--12--12----12---12-|---------------12-12-12-12-12-12-12-12-12----|
 E|--------------------|---------------------------------------------|

Gtr. Solo
 
 e|----5-5-5--5-5-5--8--8--8---------------5---5--5--x--8--8----5----|
 B|--5-5-5-5--5-5-5--8--8--8---------------5---5--5--x--8--8----5----|
 G|--6-6-6-6--6-6-6--7--7--7---------------6---6--6--x--7--7----6----|
 D|--7-7-7-7--7-7-7--7--7--7---------------7---7--7--x--7--7----7----|
 A|----------------------------x--7---------------------------x-7----|
 E|----------------------------x-----0--0---------------------x---0--|
 e|------------------------------------------------------------------|
 B|--8-8----8--------------------------------------------------------|
 G|--7-7----7----------5-----------4-5--5----------------------------|
 D|---------7------7-7------7-7-7--5-7--7--7-7-7-7-7-7-7-7-7-7-7-7-7-|
 A|------0----0-0--0-0----0---0-0----------0-0-0-0-0-0-0-0-0-0-0-0-0-|
 E|------------------------------------------------------------------|
 e|------------------------------------------------------------------|
 B|------------------------------------------------------------------|
 G|-7b-7b-7b-7b--------------------------------7b-7b-7b-7b-----------|
 D|---------------7-7-7-7-7-7-7-7-7-7--7-7-7-7---------------7-7-7-7-|
 A|-------------0-0-0-0-0-0-0-0-0-0------------------------0-0-0-0-0-|
 E|---------------------------------5--5-5-5-5-----------------------|
 e|-------------------------------15-15---15-------------------------|
 B|----------14--14-x-14-14-14-14-15-15---15--x--x-14-14--x--x-14----|
 G|----------12--12-x-12-12-12-12-------------x--x-12-12--x--x-12----|
 D|-7-7-7-7--14--14-x-14-14-14-14-------------x--x-14-14--x--x-14----|
 A|-0-0-0-0----------------------------------------------------------|
 E|----------------------------------------------------------------0-|
 e|--------------------------------------x-x-x-----------------------|
 B|-14--14--x--x--14--x---15---15-----0--x-x-x-14-14-x-x-14-14-------|
 G|-12--12--x--x--12--x---------------0--x-x-x-12-12-x-x-12-12----7b-|
 D|-14--14--x--x--14--x------------------------14-14-x-x-14-14-------|
 A|--------------------------------0---------------------------------|
 E|---------------------0---------------------------------------0----|
 e|------------------------------------------------------------------|
 B|------------------------------------------------------------------|
 G|--7----6-7-6--6---------6--6-------------7b----7------------------|
 D|-------x-x-x--7---------------7-----------------------------------|
 A|-----0-0-0-0--7---------------------------------------------------|
 E|------------------------------------------------------------------|


Important: The song above is NOT stored on the Chordie server. The original song is hosted at www.guitartabs.cc. Chordie works as a search engine and provides on-the-fly formatting. Chordie does not index songs against artists'/composers' will. To remove this song please click here.

Text color:
Chord color:
Chord grids: 
Font size:    
Page size: 

A A7 B D D7 D7sus4 E E7 F#
Rate #1 of 2 versions

Jango Player

Login - add to songbook

SHARE PAGE  



You need to log in to post comments