Guitar Tabs, Chords and Lyrics
Server problems seems to be fixed. Chordie has been experiencing problems with songs disappearing. These issues now seems to be fixed, but still verifying the fix. If you find anything strange, please email admin@chordie.com.


From Where You Are  Lifehouse

I've listened to this song hundreds of times over and I believe this is the most
correct version you're going to see.
Hope you like it. It helps to listen to the song while you play so you can get the rhythm.
THE SINGLE VERSION is in standard tuning.
THE LIVE VERSION is usually played with 1/2 down tuning (eb,Bb,Gb,Db,Ab,eb)
Intro/verse: This repeats through the verses.
BEAT:
| 1 2 3 4 |1 2 3 4 |
 
 e|------------0----------------------------|
 B|--1-----1---------1---1-----1---1-----1--|
 G|------0---------0---------0---------0----| reapeat as needed.
 D|----3-----3---3-----3---3-----3---0-----0|
 A|----------------------0-----0------------|
 E|--1-----1---1-----1-------------3-----0--|

1 & 3 & 1 & 3 &
Chorus: "I miss the years that were erased..."
 
 e|----------0------------------0-------------------0-------------------------|
 B|1-----1---------1---1-----1--------1---1-----1---------1---1-----1--0-----0|
 G|----0---------0---------0--------0---------0---------0---------0--------0--|
 D|--2----2----2-----2---3----3---3-----3---2----2----2----0----0----0---0----|
 A|0-----0---0-----0----------------------0-----0---0-----0-------------------|
 E|--------------------1-----1--1-----1-----------------------3-----3--3-----3|

1 & 3 & 1 & 3 & 1 & 3 & 1 & 3 &
Piano Part: Repeat this loop gently.
 
 e|--------12----------12----------12---------8--|
 B|--------------------------10----------8-------|
 G|--10----------10------------------------------|
 D|----------------------------------------------|
 A|----------------------------------------------|
 E|----------------------------------------------|

Here are the chords you can use to play along as well:
Chords used:
[F] [Am] [G]  
 
 e|--1---0---3--|*You can mute the e string if you wish.
 B|--1---1---0--|
 G|--2---2---0--|
 D|--3---2---0--|
 A|--3---0---x--|
 E|--1---x---3--|

Intro: Play "Intro/verse" tab here
F Am G (x2)
( Tab from: http://www.guitartabs.cc/tabs/l/lifehouse/from_where_you_are_tab_ver_3.html )
Verse: Play "Intro/verse" tab here and repeat up until the chorus.
[F]So far away from where you [Am]are[G]
[F]These miles have torn us worlds ap[Am]art[G]
[F]And I miss you[Am] [G]
[F]Yeah I miss you[Am] [G]
[F]So far away from where you [Am]are[G]
[F]And standing underneath the [Am]stars[G]
[F]And I wish you were [Am]here[G]
Chorus: Play "Chorus" tab here
[Am]I miss the years that were er[F]ased
[Am]I miss the way the sunshine [G]would light up your face
[Am]I miss all the little [F]things
[Am]I never thought that they'd mean [G]everything to me
Play "Intro/verse" tab starting here:
[F]Yeah I miss you [Am](Play t[G]he "Piano Part" tab here)
[F]And I wish you w[Am]ere her[G]e
Verse: Play "Intro/verse" tab here and repeat up until the chorus.
[F]I feel the beating of your [Am]heart[G]
[F]I see the shadows of your [Am]face[G]
[F]Just know that wherever you [Am]are[G]
[F]Yeah I miss you[Am] [G]
[F]And I wish you were [Am]here[G]
Chorus: Play "Chorus" tab here
[Am]I miss the years that were er[F]ased
[Am]I miss the way the sunshine [G]would light up your face
[Am]I miss all the little [F]things
[Am]I never thought that they'd mean [G]everything to me
Play "Intro/verse" tab starting here:
[F]Yeah I miss you [Am](Play t[G]he "Piano Part" tab here until the end of the song.)
[F]And I wish you w[Am]ere her[G]e
Verse: Play "Intro/verse" tab here and repeat up until the chorus.
[F]So far away from where you [Am]are[G]
[F]These miles have torn us worlds ap[Am]art[G]
[F]And I miss you[Am] [G]
[F]Yeah I miss you[Am] [G]
[F]And I wish you were [Am]here[G]
(end with F)
Well, you should be able to play the whole song with what I gave you above. I
hope you found this helpful!
Take Care,
J-Priceless

Important: The song above is NOT stored on the Chordie server. The original song is hosted at www.guitartabs.cc. Chordie works as a search engine and provides on-the-fly formatting. Chordie does not index songs against artists'/composers' will. To remove this song please click here.

Text color:
Chord color:
Chord grids: 
Font size:    
Page size: 

Am F G
Rate #2 of 8 versions

Login - add to songbook

SHARE PAGE  




You need to log in to post comments