Guitar Tabs, Chords and Lyrics
Server problems seems to be fixed. Chordie has been experiencing problems with songs disappearing. These issues now seems to be fixed, but still verifying the fix. If you find anything strange, please email admin@chordie.com.


All Night Long   Lifetime

 
 --------------------------------------------------------------------------

 


 ALL NIGHT LONG - lifetime


 

 
 --------------------------------------------------------------------------

 


 


 Band: Lifetime


 Album: Lifetime (Decaydence, 2007)


 


 Tabbed by Kyle T.


 Contact: pants_me@hotmail.com


 Site: http://thetwelveminutemile.blogspot.com


 


 Standard tuning (EADG)


 


 Legend:


 


 . - Palm mute o - Repeat bar


 x - Dead note o


 _ - Let ring _______


 % - Rest |1,2... - Endings for repeats


 / - Slide up # - Harmonic


 \ - Slide down Nx - Number of repeats


 h - Hammer on v - Vibrato


 b - bend * - Staccato


 r - release ^ - Pitch harmonic


 (x) - Note tied over from previous bar


 


 [---]  


 Note: The timing in the post-verse and outro is off.


 


 [---]  


 


 Intro:


 


 [4/4]  

 
 G|-----------------|-----------------|-----------------|-----------------|
 D|-----------------|-----------------|-----------------|-----------------|
 A|-------%---------|--------%--------|--------%--------|--------%--------|
 E|-----------------|-----------------|-----------------|-----------------|

 


 


 Well it was


 


 Verse 1:


 


 

 
 G|-----------------|-----------------|-----------------|-----------------|
 D|o----------------|-----------------|-----------------|-----------------|
 A|o----------------|-----------------|-----------------|-----2---2-4-2-0-|
 E|-5-5-5-5-5-5-5-5-|-4-4-4-4-4-4-4-4-|-2-2-2-2-2-2-2-2-|-0-0---0---------|

 


 


 ___________________________________


 | 1.


 

 
 G|-----------------|-----------------|-----------------|-----------------|
 D|-----------------|-----------------|-----------------|----------------o|
 A|-----------------|-----------------|-----------------|----------------o|
 E|-5-5-5-5-5-5-5-5-|-4-4-4-4-4-4-4-4-|-2-2-2-2-2-2-2-2-|-2-2-2-2-2-2-4-4-|

 


 


 _________________


 | 2.


 

 
 G|-----------------|-----------------|
 D|-----------------|-----------------|
 A|-9-9-9-9-9-9-9-9-|-9-9-9-9-9-9-9-9-|
 E|-----------------|-----------------|

 


 


 Raining all day long.


 The night before we fought and Saturday was gone.


 It was raining all day long.


 I thought last night would never end, now Saturday is cold and damp and


 


 Post-verse:


 


 

 
 G|-----------------|-----------------|-----------------|-----------------|
 D|-----------------|-----------------|-----------------|-----------------|
 A|-5-5-----5-------|(5)--------------|-5-5-----7-------|(7)--------------|
 E|-----------------|-----------------|-----------------|-----------------|

 


 


 I left you all alone, I didn't talk at all


 


 Verse 2:


 


 

 
 G|-----------------|-----------------|-----------------|-----------------|
 D|o----------------|-----------------|-----------------|-----------------|
 A|o----------------|-----------------|-----------------|-----2---2-4-2-0-|
 E|-5-5-5-5-5-5-5-5-|-4-4-4-4-4-4-4-4-|-2-2-2-2-2-2-2-2-|-0-0---0---------|

 


 ( Tab from: http://www.guitartabs.cc/tabs/l/lifetime/all_night_long_btab.html )


 ___________________________________


 | 1.


 

 
 G|-----------------|-----------------|-----------------|-----------------|
 D|-----------------|-----------------|-----------------|----------------o|
 A|-----------------|-----------------|-----------------|----------------o|
 E|-5-5-5-5-5-5-5-5-|-4-4-4-4-4-4-4-4-|-2-2-2-2-2-2-2-2-|-2-2-2-2-2-2-4-4-|

 


 


 _________________


 | 2.


 

 
 G|-----------------|-----------------|
 D|-----------------|-----------------|
 A|-9-9-9-9-9-9-9-9-|-9-9-9-9-9-9-9-9-|
 E|-----------------|-----------------|

 


 


 You felt it all the way that I got no more to say.


 And the rest of you can say it's right,


 But I don't trust a thing in sight when everything is overrated.


 You're so good you just can't fake it.


 I waited for some kind of answer, some kind words so I can hold ya.


 


 Post-verse:


 


 

 
 G|-----------------|-----------------|-----------------|-----------------|
 D|o----------------|-----------------|-----------------|----------------o|
 A|o5-5-----5-------|(5)--------------|-5-5----/7-------|(7)-------------o|
 E|-----------------|-----------------|-----------------|-----------------|

 


 


 I left you all alone, I didn't talk at all.


 And now I feel so bad, I guess I just needed a


 


 Chorus:


 


 

 
 G|-----------------|-----------------|-----------------|-----------------|
 D|-----------------|-----------------|-----------------|-----------------|
 A|-----------------|-----------------|-----------------|-----------------|
 E|-2-2-2-2-2-2-2-2-|-2-2-2-2-2-2-2-2-|-2-2-2-2-2-2-2-2-|-2-2-2-2-2-2-2-2-|
 G|-----------------|-----------------|-----------------|-----------------|
 D|-----------------|-----------------|-----------------|-----------------|
 A|-5-5-5-5-5-5-5-5-|-5-5-5-5-5-5-5-5-|-5-5-5-5-5-5-5-5-|-5-5-5-5-5-5-5-5-|
 E|-----------------|-----------------|-----------------|-----------------|
 G|-----------------|-----------------|-----------------|-----------------|
 D|-----------------|-----------------|-----------------|-----------------|
 A|-2-2-2-2-2-2-2-2-|-2-2-2-2-2-2-2-2-|-2-2-2-2-2-2-2-2-|-2-2-2-2-2-2-2-2-|
 E|-----------------|-----------------|-----------------|-----------------|
 G|-----------------|-----------------|-----------------|-----------------|
 D|-----------------|-----------------|-----------------|-----------------|
 A|-5-5-5-5-5-5-5-5-|-5-5-5-5-5-5-5-5-|-7-7-7-7-7-7-7-7-|-7-7-7-7-7-7-7-7-|
 E|-----------------|-----------------|-----------------|-----------------|

 


 


 Day to feel lonely, lonely and blue.


 Now how about, how about you?


 


 Verse 3:


 


 

 
 G|-----------------|-----------------|-----------------|-----------------|
 D|o----------------|-----------------|-----------------|-----------------|
 A|o----------------|-----------------|-----------------|-----------------|
 E|-5---------------|(5)--------------|-4---------------|(4)--------------|
 G|-----------------|-----------------|-----------------|-----------------|
 D|-----------------|-----------------|-----------------|----------------o|
 A|-----------------|-----------------|-5---------------|(5)-------------o|
 E|-2---------------|(2)--------------|-----------------|-----------------|

 


 


 Well it was raining all day long. It was raining all day long.


 Well it was raining all day long. It was raining all day long.


 Go!


 


 Outro: (tempo change)


 


 

 
 G|-----------------|-----------------|-----------------|-----------------|
 D|o----------------|-----------------|-----------------|----------------o|
 A|o----------------|-7-7-7-7-7-7-7-7-|---------------44|-5-5-5-5-5-5-5-4o|
 E|-5-5-5-5-xx-55-77|-----------------|-2-2-2-2-xx-22---|-----------------|
 G|-----------------|
 D|-----------------|
 A|-----------------|
 E|-5/--------------|


Important: The song above is NOT stored on the Chordie server. The original song is hosted at www.guitartabs.cc. Chordie works as a search engine and provides on-the-fly formatting. Chordie does not index songs against artists'/composers' will. To remove this song please click here.

This song is displayed as text-only. Transposing and tuning is only available for chordpro-songs.
Rate #1 of 1 versions

Login - add to songbook

SHARE PAGE  



You need to log in to post comments