Guitar Tabs, Chords and Lyrics
Major upgrade!! After one year development the new version of Chordie is now online! Please give feedback.


Take a Look Around   Limp Bizkit

 
 E------------------------------------
 B-----------------------------------
 G---------------1------------------ -
 D-1-1-1-1-1-4---4-1-1-1-1-1---0-
 A-------------------------------4---
 E------------------------------------

 


 


 VERSE (repeat 2 times)


 

 
 E-14---------14---------14---------14--------------------
 B---16---------16---------16---------16-------------------
 G-----15---------14---------13---------16-16-16-15-15
 D-----------------------------------------------------------
 A------------------------------------------------------------
 E-------------------------------------------------------------

 


 


 REPEAT INTRO 2 TIMES


 


 REPEAT VERSE 2 TIMES


 ( Tab from: http://www.guitartabs.cc/tabs/l/limp_bizkit/take_a_look_around_tab_ver_12.html )


 BRIDGE AND CHORUS Repeat 4 times medium for bridge them then 4 times HARDCORE for chorus


 

 
 E------------------------------------------------------|--------
 B------------------------------------------------------|--------
 G------------------------------------------------------|------
 D-3----5----3----5----3----5----3----5----4----6|----3----5----3----5----3----5----3----5----3----4
 A-4----6----4----6----4----6----4----6----4----6|----4----6----4----6----4----6----4----6----4----5
 E-4----6----4----6----4----6----4----6----2----4|----4----6----4----6----4----6----4----6----4----5

 


 


 repeat intro 2 times


 


 repeat verse 4 times


 


 repeat bridge and chorus.Repeat 4 times medium for bridge them then 4 times HARDCORE for chorus


 


 CHORUS 2 repeat 2 times hardcore


 [E-]  


 [B-]  


 [G-]  


 

 
 D-5----5----4----6----5----5----3----4
 A-6----6----4----6----6----6----4----5
 E-6----6----2----4----6----6----4----5

 


 


 wait


 


 when fred sings "now i know why"start repeating 4 times softley then 4 times medium


 [E-]  


 [B-]  


 

 
 G-----------1
 D-1--1-1-4--1--1-1--0
 A-------------------4


Important: The song above is NOT stored on the Chordie server. The original song is hosted at www.guitartabs.cc. Chordie works as a search engine and provides on-the-fly formatting. Chordie does not index songs against artists'/composers' will. To remove this song please click here.

This song is displayed as text-only. Transposing and tuning is only available for chordpro-songs.
Rate #1 of 6 versions

Login - add to songbook

SHARE PAGE  



You need to log in to post comments