Guitar Tabs, Chords and Lyrics
Major upgrade!! After one year development the new version of Chordie is now online! Please give feedback.


Lying From You  Linkin Park

This has a few tabs as well as chords so enjoy
INTRO
 
 e--------15-15-15--15----------19--19-19--19-----|
 B--15-15---------------15-15---------------------|
 G------------------------------------------------|
 D------------------------------------------------|
 A------------------------------------------------|
 E------------------------------------------------|x2
 e--------------------------------------------------|
 B--------------------------------------------------|
 G--------------------------------------------------|
 D----------------------------------7---------------|
 A--8-8-8-8---6-8-7-6-9-8-7-6-7---------------------| 4 times
 E--8-8-8-8---6-8-7-6-9-8-7-6-x---------------------|

When I preten[Em]d everything is what I want it to be
I look exactly [C]like what you always wanted to [D]see
When I pretend,[Em] I can't forget about the criminal I am
Stealing second a[C]fter second just cause I know I [D]can but
I can't preten[Em]d this is the way it'll stay I'm just
(Lyin[C]g to bend the[D] truth)
[Em]I can't pretend I'm who you want me to be, so I'm
(Chorus)
(L[C]ying my[D] way from y[E]ou)
[E]No no turning back now
(I wa[C]nna be pushed aside so let me go)
[G]No no turning back now
[D](Let me take back my life I'd rather b[E]e all alone)
[E]No turning back now
[C](Anywhere on my own cuz I can see)
[G]No no turning back now
(T[D]he very worst part of you is me)
[Em]I remember what they taught to me
[C]Remember condescending talk for who I ought [D]to be
[Em]Remember listening to all of that and this again
[C]So I pretended up a person who was fittin' i[D]n
[Em]And now you think this person really is me and I'm
[C] (Trying to bend the tr[D]uth)
[Em]Cuz the more I push the more I'm pulling away cuz I'm
(Chorus)
(L[C]ying my [D]way from [E]you)
[E]No no turning back now
(I wa[C]nna be pushed aside so let me go)
[G]No no turning back now
[D](Let me take back my life I'd rather be all[E] alone)
[E]No turning back now
[C](Anywhere on my own cuz I can see)
[G]No no turning back now
(T[D]he very worst part of you)
(Th[D]e very worst part of you i[Em]s ME)
 
 e--------------------------------------------------|
 B--------------------------------------------------|
 G--------------------------------------------------|
 D----------------------------------7---------------|
 A--8-8-8-8---6-8-7-6-9-8-7-6-7---------------------|
 E--8-8-8-8---6-8-7-6-9-8-7-6-x---------------------|

Play throughout the Bridge with second guitar playing Em
This isn't what I wanted to be, I never thought that what I said would
have you running from me
Like This
This isn't what I wanted to be, I never thought that what I said would
have you running from me
Like This
This isn't what I wanted to be, I never thought that what I said would
have you running from me
Like This
This isn't what I wanted to be, I never thought that what I said would
have you running from me
Like This
(Chorus)
([E]You)
[E]No no turning back now
(I wa[C]nna be pushed aside so let me go)
[G]No no turning back now
[D](Let me take back my life I'd rather b[E]e all alone)
[E]No turning back now
[C](Anywhere on my own cuz I can see)
[G]No no turning back now
(T[D]he very worst part of you)
(Th[D]e very worst part of y[Em]ou is me)

Important: The song above is NOT stored on the Chordie server. The original song is hosted at www.guitartabs.cc. Chordie works as a search engine and provides on-the-fly formatting. Chordie does not index songs against artists'/composers' will. To remove this song please click here.

Text color:
Chord color:
Chord grids: 
Font size:    
Page size: 

C D E Em G
Rate #2 of 3 versions

Login - add to songbook

SHARE PAGE  




You need to log in to post comments