Guitar Tabs, Chords and Lyrics
Server problems seems to be fixed. Chordie has been experiencing problems with songs disappearing. These issues now seems to be fixed, but still verifying the fix. If you find anything strange, please email admin@chordie.com.


Acid Rain   Liquid Tension Experiment

 
 |-------------------------------------------------|
 |-16----------------------------------------------|
 |----14----------12----------14----------12-------|
 |-------------------------14----------------------|
 |-------14----12----------------14----12----------|
 |----------12-------12-12----------12-------12-12-|
 |-------------------------3----------------------|
 |---------------------------14-------14-------14-|
 |----14----------12---------------14----14-------|
 |-14---------------------------14----------------|
 |-------14----12---------------------------14----|
 |----------12-------12-12------------------------|
 |-------------------------------------------------|
 |-------------------------------------------------|
 |----14----------12----------14----------12-------|
 |-14----------------------14----------------------|
 |-------14----12----------------14----12----------|
 |----------12-------12-12----------12-------12-12-|

 


 


 Gtr I


 

 
 |-12-10-12-15-12-10-17-15-12-15-12-10-10--7--5--3-|
 |-------------------------------------------------|
 |-------------------------------------------------|
 |-------------------------------------------------|
 |-------------------------------------------------|
 |-------------------------------------------------|

 


 |


 | Gtr II


 

 
 |--------------------5--3--0--3--0----------------|
 |----14-------16-14----------------14-14----------|
 |-------------------------------------------14-12-|
 |-14----14-17-------------------------------------|
 |----------------------------------------14-------|
 |-------------------------------------------------|
 |--0----------------------------------------------|
 |--------------9--7-------16----------------------|
 |-----------9----------------14----------12-------|
 |-----7--9----------------------------------------|
 |--------------------7--7-------14----12----------|
 |----------------------------------12-------12-12-|

 


 |


 

 
 |-------------------------------------------------|
 |-------------------------------------------------|
 |----14----------12----------14----------12-------|
 |-14----------------------14----------------------|
 |-------14----12----------------14----12----------|
 |----------12-------12-12----------12-------12-12-|

 


 


 Gtrs I, II


 

 
 |-------------------------3----------------------|
 |---------------------------14-------14-------14-|
 |----14----------12---------------14----14-------|
 |-14---------------------------14----------------|
 |-------14----12---------------------------14----|
 |----------12-------12-12------------------------|
 |-------------------------------------------------|
 |-------------------------------------------------|
 |----14----------12----------14----------12-------|
 |-14----------------------14----------------------|
 |-------14----12----------------14----12----------|
 |----------12-------12-12----------12-------12-12-|
 |-8-10-12-7-8-10-5-7-8-3-5-7-3----|
 |------------------------------14-|
 |---------------------------------|
 |---------------------------------|
 |---------------------------------|
 |---------------------------------|

 


 


 Gtr I


 

 
 |---17-12-12---17-12-12-|---17-12-12---17-12-12--|
 |-----------------------|------------------------|
 |-----------------------|------------------------|
 |-----------------------|------------------------|
 |-----------------------|------------------------|
 |-----------------------|------------------------|
 |---17-12-12---17-12-12-|---17-12-12---17-12-12-|---17-12-12---17-12-12-|
 |-----------------------|-----------------------|-----------------------|
 |-----------------------|-----------------------|-----------------------|
 |-----------------------|-----------------------|-----------------------|
 |-----------------------|-----------------------|-----------------------|
 |-----------------------|-----------------------|-----------------------|
 |---17-12-12---17-12-12-|---17-12-12---17-12-12-|
 |-----------------------|-----------------------|
 |-----------------------|-----------------------|
 |-----------------------|-----------------------|
 |-----------------------|-----------------------|
 |-----------------------|-----------------------|
 |-17-15-12-8-12-12-10-----------------------------|
 |---------------------23----24-23----23-23-21-19--|
 |---------------------------------24----------23--|
 |---------------------22-24-----------------------|
 |-------------------------------------------------|
 |-------------------------------------------------|
 |----------------------0--------------------------|
 |--------4--4-------4----14--------------14-------|
 |----19-------------------------------------------|
 |-------------------------------------14----------|
 |-19----------------------------------------------|
 |---------------------------12-12--12-------12-12-|

 


 |


 | Gtr II


 

 
 |-------------------------------------------------|
 |----14------------------14--------------14-------|
 |-------------------------------------------------|
 |-14------------------14--------------14----------|
 |-------------------------------------------------|
 |-------12-12-(12)-12-------12-12--12-------12-12-|
 |-------------------------------------------------|
 |----14------------------14--------------14-------|
 |-------------------------------------------------|
 |-14------------------14--------------14----------|
 |-------------------------------------------------|
 |-------12-12------12-------12-12--12-------12-12-|

 


 |


 

 
 |-------------------------------------------------|
 |----14------------------14--------------14-------|
 |-------------------------------------------------|
 |-14------------------14--------------14----------|
 |-------------------------------------------------|
 |-------12-12-(12)-12-------12-12--12-------12-12-|
 |-------------------------------------------------|
 |----14------------------14--------------14-------|
 |-------------------------------------------------|
 |-14------------------14--------------14----------|
 |-------------------------------------------------|
 |-------12-12------12-------12-12--12-------12-12-|

 


 |


 

 
 |-------------------------------------------------|
 |----14------------------14--------------14-------|
 |-------------------------------------------------|
 |-14------------------14--------------14----------|
 |-------------------------------------------------|
 |-------12-12-(12)-12-------12-12--12-------12-12-|
 |-8-10-12-7-8-10-5-7-8-3-5-7-3-----|
 |------------------------------14--|
 |----------------------------------|
 |----------------------------------|
 |----------------------------------|
 |----------------------------------|

 


 |


 

 
 |-8-10-12-7-8-10-5-7-8-3-5-7-3-----|
 |------------------------------14--|
 |----------------------------------|
 |----------------------------------|
 |----------------------------------|
 |----------------------------------|
 |-------------------------------------------------|
 |-------------------------------------------------|
 |-14-12------------------12--------------12-------|
 |-------------------------------------------------|
 |---------------------12--------------12----------|
 |-------12-12------12-------12-12--12-------12-12-|

 


 |


 

 
 |-------------------------------------------------|
 |-------------------------------------------------|
 |-14-12------------------12--------------12-------|
 |-------------------------------------------------|
 |---------------------12--------------12----------|
 |-------12-12-(12)-12-------12-12--12-------12-12-|
 |-------------------------------------------------|
 |-------------------------------------------------|
 |----12------------------12--------------12-------|
 |-------------------------------------------------|
 |-12------------------12--------------12----------|
 |-------12-12------12-------12-12--12-------12-12-|

 


 |


 

 
 |-------------------------------------------------|
 |-------------------------------------------------|
 |----12------------------12--------------12-------|
 |-------------------------------------------------|
 |-12------------------12--------------12----------|
 |-------12-12-(12)-12-------12-12--12-------12-12-|
 |-------------------------------------------------|
 |-------------------------------------------------|
 |----12------------------12--------------12-------|
 |-------------------------------------------------|
 |-12------------------12--------------12----------|
 |-------12-12------12-------12-12--12-------12-12-|

 


 |


 

 
 |-------------------------------------------------|
 |-------------------------------------------------|
 |----12------------------12--------------12-------|
 |-------------------------------------------------|
 |-12------------------12--------------12----------|
 |-------12-12-(12)-12-------12-12--12-------12-12-|
 |-------------------------------------------------|
 |-------------------------------------------------|
 |----12------------------12--------------12-------|
 |-------------------------------------------------|
 |-12------------------12--------------12----------|
 |-------12-12------12-------12-12--12-------12-12-|

 


 |


 

 
 |-------------------------------------------------|
 |-------------------------------------------------|
 |----12------------------12--------------12-------|
 |-------------------------------------------------|
 |-12------------------12--------------12----------|
 |-------12-12-(12)-12-------12-12--12-------12-12-|

 


 


 Gtrs I, II


 

 
 |------------2-3---3-5---5-7---7-8---|-----------2-3---3-5---5-7---7-8---|
 |----------4-----4-----4-------------|---16----4-----4-----4-------------|
 |----------------------------------9-|-9-------------------------------9-|
 |----14-16---------------------------|------16---------------------------|
 |----------------------------7-------|---------------------------7-------|
 |-12---------------------------------|-----------------------------------|
 |-----------2-3---3-5---5-7---7-8---|-----------2-3---3-5---5-7---7-8---|
 |---16----4-----4-----4-------------|---16----4-----4-----4-------------|
 |-9-------------------------------9-|-9-------------------------------9-|
 |------16---------------------------|------16---------------------------|
 |---------------------------7-------|---------------------------7-------|
 |-----------------------------------|-----------------------------------|
 |-----------2-3---3-5---5-7---7-8---|-----------2-3---3-5---5-7---7-8---|
 |---16----4-----4-----4-------------|---16----4-----4-----4-------------|
 |-9-------------------------------9-|-9-------------------------------9-|
 |------16---------------------------|------16---------------------------|
 |---------------------------7-------|---------------------------7-------|
 |-----------------------------------|-----------------------------------|
 |-----------2-3---3-5---5-7---7-8---|-----------2-3---3-5---5-7---7-8---|
 |---16----4-----4-----4-------------|---16----4-----4-----4-------------|
 |-9-------------------------------9-|-9-------------------------------9-|
 |------16---------------------------|------16---------------------------|
 |---------------------------7-------|---------------------------7-------|
 |-----------------------------------|-----------------------------------|

 


 


 Gtr I


 

 
 |-----------|---------------|-----------|---------------|
 |-----------|---------------|-----------|---------------|
 |-----------|---------------|-----------|---------------|
 |-21--------|-(21)----24----|-19--------|-(19)----21----|
 |-19--------|-(19)----22----|-19--------|-(19)----21----|
 |-19--------|-(19)----22----|-17--------|-(17)----19----|
 |-----------|---------------|-11--------|-(11)----|
 |-----------|---------------|-----------|---------|
 |-----------|---------------|-----------|---------|
 |-22--------|-(22)----21----|-----------|---------|
 |-22--------|-(22)----21----|-----------|---------|
 |-20--------|-(20)----19----|-----------|---------|
 |-----------|---------------|-----------|---------------|
 |-----------|---------------|-----------|---------------|
 |-----------|---------------|-----------|---------------|
 |-21--------|-(21)----24----|-19--------|-(19)----21----|
 |-19--------|-(19)----22----|-19--------|-(19)----21----|
 |-19--------|-(19)----22----|-17--------|-(17)----19----|
 |-----------|---------------|-11--------|-(11)----|
 |-----------|---------------|-----------|---------|
 |-----------|---------------|-----------|---------|
 |-22--------|-(22)----21----|-----------|---------|
 |-22--------|-(22)----21----|-----------|---------|
 |-20--------|-(20)----19----|-----------|---------|

 


 


 [2/4] [4/4] [3/4] [4/4]  

 
 |-----------12--|-------|---------------|-------------|-----------12---|
 |-----------16--|-------|---------------|-------------|-----------16---|
 |---------------|-------|---------------|-17--17------|----------------|
 |-21---24-------|--19---|-21---24-------|-------------|-21---24--------|
 |-19---22-------|--17---|-19---22-------|---------17--|-19---22--------|
 |-19---22-------|--15---|-19---22---19--|-------------|-19---22--------|

 


 


 [2/4] [3/4] [4/4]  

 
 |-------|-----------|-----------------|
 |-------|-----------|-----------------|
 |-------|-----------|-----17--17------|
 |--19---|-21---24---|-----------------|
 |--17---|-19---22---|-------------17--|
 |--15---|-19---22---|-19--------------|

 


 


 Gtr III


 

 
 |-10-9-7-9-7-5-3-7-9-10-15-17-15-17-15-14--|
 |--------------------------------------17--|
 |------------------------------------------|
 |------------------------------------------|
 |------------------------------------------|
 |------------------------------------------|
 |-------------------10--9---------------|
 |-15-14-12-14-12-10----12-10-12---------|
 |-------------------------------11-9-7--|
 |---------------------------------------|
 |---------------------------------------|
 |---------------------------------------|
 |-10-9-7-9-7-5-3-7-9-10-15-17-15-17-15-14--|
 |--------------------------------------17--|
 |------------------------------------------|
 |------------------------------------------|
 |------------------------------------------|
 |------------------------------------------|
 |----19-------17----------------------------------|
 |-12-------------------19-------17----19-17-15-14-|
 |-------------------------------------19-18-16-14-|
 |-------21-19----19-------------------------------|
 |-------------------21----21-19----19-------------|
 |-------------------------------------------------|
 |---------------------7-9-10-15-17-15-17-15-14-|
 |-15-14-12-14-12-10-8-----------------------17-|
 |----------------------------------------------|
 |----------------------------------------------|
 |----------------------------------------------|
 |----------------------------------------------|
 |-------------------10--9---------------|
 |-15-14-12-14-12-10----12-10-12---------|
 |-------------------------------11-9-7--|
 |---------------------------------------|
 |---------------------------------------|
 |---------------------------------------|
 |-10-9-7-9-7-5-3-7-9-10-15-17-15-17-15-14--|
 |--------------------------------------17--|
 |------------------------------------------|
 |------------------------------------------|
 |------------------------------------------|
 |------------------------------------------|
 |-------------------------17----17-21-19--|----------|-----|
 |-14-15-17-15-17-17-19-17-19-19----24-----|----------|-----|
 |-------18-------19-----------------------|----------|-----|
 |-----------------------------------------|-0--------|-----|
 |-----------------------------------------|-2--------|-----|
 |-----------------------------------------|----------|-----|
 |---------|---------|-----3-7-----7-12----------------------12--|
 |---------|---------|-3-5-------5---------------12-------12-----|
 |---------|---------|---------7--------------12-----------------|
 |---------|---------|------------------12-14-------12-14--------|
 |---------|---------|-------------------------------------------|
 |---------|---------|-------------------------------------------|
 |-------12-15-19-------------------------------|
 |----10----------20-------15-14-13-12-10-9-8-7-|
 |-12----------------18-16----------------------|
 |----------------------------------------------|
 |----------------------------------------------|
 |----------------------------------------------|
 |---10-14-------------12-15-19-17-16-14-12-10-12-|
 |-8-------15-17-15-14----------------------14----|
 |------------------------------------------------|
 |------------------------------------------------|
 |------------------------------------------------|
 |------------------------------------------------|
 |-10-8-7-6-5-3-10----9-7-5-3-2-------|---------------------2-----------|
 |-14---------------------------5-3-2-|-5-7-5-7-8-7-5-7-5-3---5-5-7-5-7-|
 |-----------------11-----------------|---------------------------------|
 |------------------------------------|---------------------------------|
 |------------------------------------|---------------------------------|
 |------------------------------------|---------------------------------|
 |-5-3-2-3-2-----3-2-3-5-3-5-7-5-3-|-5-3-2-5-3-5-7-5-7-9-7-5-7-5-3-3-|
 |-----------5-3-------------------|-------------------------------7-|
 |---------------------------------|---------------------------------|
 |---------------------------------|---------------------------------|
 |---------------------------------|---------------------------------|
 |---------------------------------|---------------------------------|
 |-5-7-10-9-7-10-12-14-15-15-17-21-19--|
 |-----14-----14-------19-------24-----|
 |-------------------------------------|
 |-------------------------------------|
 |-------------------------------------|
 |-------------------------------------|
 |------------------------------3-7-----7-12--|
 |----------------------------5-------5-------|
 |----------16----------21----------7---------|
 |-------17----------21-----------------------|
 |-17-19-------17-19--------------------------|
 |-------------------------24-----------------|
 |-------12-15-19-------------------------------|
 |----10----------20-------15-14-13-12-10-9-8-7-|
 |-12----------------18-16----------------------|
 |----------------------------------------------|
 |----------------------------------------------|
 |----------------------------------------------|
 |---10-14-------------12-15-19-17-16-14-12-10-12-|
 |-8-------15-17-15-14----------------------14----|
 |------------------------------------------------|
 |------------------------------------------------|
 |------------------------------------------------|
 |------------------------------------------------|
 |-10-8-7-6-5-3-10----9-7-5-3-2-------|---------------------2-----------|
 |-14---------------------------5-3-2-|-5-7-5-7-8-7-5-7-5-3---5-5-7-5-7-|
 |-----------------11-----------------|---------------------------------|
 |------------------------------------|---------------------------------|
 |------------------------------------|---------------------------------|
 |------------------------------------|---------------------------------|
 |-5-3-2-3-2-----3-2-3-5-3-5-7-5-3-|-5-3-2-5-3-5-7-5-7-9-7-5-7-5-3-3-|
 |-----------5-3-------------------|-------------------------------7-|
 |---------------------------------|---------------------------------|
 |---------------------------------|---------------------------------|
 |---------------------------------|---------------------------------|
 |---------------------------------|---------------------------------|

 


 


 Gtr I


 

 
 |-5-7-10-9-7-10-12-14-15-15-17-21-19--|-------------|---------------|
 |-----14-----14-------19-------24-----|-------------|---------16----|
 |-------------------------------------|-17----------|---------------|
 |-------------------------------------|-------------|---------------|
 |-------------------------------------|---------17--|-(17)----------|
 |-------------------------------------|-------------|---------------|
 |-------------------|-------------|---------------|-------------------|
 |-(16)--------------|-------------|---------16----|-(16)--------------|
 |-------------------|-17----------|---------------|-------------------|
 |-------16--(16)----|-------------|---------------|-------16--(16)----|
 |-------------------|---------17--|-(17)----------|-------------------|
 |-------------------|-------------|---------------|-------------------|
 |-------------|---------------|-------------------|-------------|
 |-------------|---------16----|-(16)--------------|-------------|
 |-17----------|---------------|-------------------|-17----------|
 |-------------|---------------|-------16--(16)----|-------------|
 |---------17--|-(17)----------|-------------------|---------17--|
 |-------------|---------------|-------------------|-------------|

 


 


 [2/4]  

 
 |---------------|-------------------|-----------|
 |---------16----|-(16)--------------|-16--------|
 |---------------|-------------------|-----------|
 |---------------|-------16--(16)----|-----------|
 |-(17)----------|-------------------|-----------|
 |---------------|-------------------|-----------|

 


 |


 | Gtr II


 

 
 |---------------|-------------------|-----------|
 |---------------|-------------------|-----------|
 |---------------|-------------------|-----------|
 |---------------|-------------------|-----------|
 |---------------|-------------------|-----------|
 |---------------|-------------------|-----------|

 


 


 [4/4]  

 
 |--------------------------------------------------|
 |-14-----------------------------------------------|
 |--------------------------------------------------|
 |----14-------12-14--------------------------------|
 |--------------------------------------------------|
 |-------12-12-------12-12-12-12-12-12------12-12---|

 


 |


 

 
 |--------------------------------------------------|
 |--------------------------------------------------|
 |--------------------------------------------------|
 |-12-14-------12-14--------------------------------|
 |--------------------------------------------------|
 |-------12-12-------12-12-12-12-12-12-(12)-12-12---|
 |-------------------------------------------------|
 |-------------------------------------------------|
 |-------------------------------------------------|
 |-12-14-------12-14-------------------------------|
 |-------------------------------------------------|
 |-------12-12-------12-12-12-12-12-12------12-12--|

 


 |


 

 
 |-------------------------------------------------|
 |-------------------------------------------------|
 |-------------------------------------------------|
 |-12-14-------12-14-------------------------------|
 |-------------------------------------------------|
 |-------12-12-------12-12-12-12-12-12-(12)-12-12--|
 |-------------------------------------------------|
 |-------------------------------------------------|
 |-------------------------------------------------|
 |-12-14-------12-14-------------------------------|
 |-------------------------------------------------|
 |-------12-12-------12-12-12-12-12-12------12-12--|

 


 |


 

 
 |-------------------------------------------------|
 |-------------------------------------------------|
 |-------------------------------------------------|
 |-12-14-------12-14-------------------------------|
 |-------------------------------------------------|
 |-------12-12-------12-12-12-12-12-12-(12)-12-12--|
 |-------------------------------------------------|
 |-------------------------------------------------|
 |-------------------------------------------------|
 |-12-14-------12-14-------------------------------|
 |-------------------------------------------------|
 |-------12-12-------12-12-12-12-12-12------12-12--|

 


 |


 

 
 |-------------------------------------------------|
 |-------------------------------------------------|
 |-------------------------------------------------|
 |-12-14-------12-14-------------------------------|
 |-------------------------------------------------|
 |-------12-12-------12-12-12-12-12-12-(12)-12-12--|
 |------------------------------------------------|
 |------------------------------------------------|
 |------------------------------------------------|
 |-12-14-------12-14------------------------------|
 |------------------------------------------------|
 |-------12-12-------12-12-12-12-12-12-----12-12--|

 


 |


 

 
 |--2--3--------2--3------------------------------|
 |--------4--4--------4--4--4--4--4--4-(4)--4--4--|
 |------------------------------------------------|
 |------------------------------------------------|
 |------------------------------------------------|
 |------------------------------------------------|
 |------------------------------------------------|
 |------------------------------------------------|
 |------------------------------------------------|
 |-12-14-------12-14------------------------------|
 |------------------------------------------------|
 |-------12-12-------12-12-12-12-12-12-----12-12--|

 


 |


 

 
 |--2--3--------2--3------------------------------|
 |--------4--4--------4--4--4--4--4--4-(4)--4--4--|
 |------------------------------------------------|
 |------------------------------------------------|
 |------------------------------------------------|
 |------------------------------------------------|
 |------------------------------------------------|
 |------------------------------------------------|
 |------------------------------------------------|
 |-12-14-------12-14------------------------------|
 |------------------------------------------------|
 |-------12-12-------12-12-12-12-12-12-----12-12--|

 


 |


 

 
 |--2--3--------2--3------------------------------|
 |--------4--4--------4--4--4--4--4--4-(4)--4--4--|
 |------------------------------------------------|
 |------------------------------------------------|
 |------------------------------------------------|
 |------------------------------------------------|
 |------------------------------------------------|-----------|-----|
 |------------------------------------------------|-11--------|-----|
 |------------------------------------------------|-----------|-----|
 |-12-14-------12-14------------------------------|-----------|-----|
 |------------------------------------------------|-----------|-----|
 |-------12-12-------12-12-12-12-12-12-----12-12--|-12--------|-----|

 


 |


 

 
 |--2--3--------2--3------------------------------|-----------|-----|
 |--------4--4--------4--4--4--4--4--4-(4)--4--4--|-----------|-----|
 |------------------------------------------------|-----------|-----|
 |------------------------------------------------|-----------|-----|
 |------------------------------------------------|-----------|-----|
 |------------------------------------------------|-----------|-----|

 


 


 Gtr III


 

 
 |---------|----------------------------|----------------|
 |---------|----------------------------|----------------|
 |---------|----------------------------|----------------|
 |---------|----------------------------|----------------|
 |---------|---17--19-(19)--19-(19)--17-|--19--19--17----|
 |---------|----------------------------|----------------|
 |--------------------------|----------------------|---------------------|
 |--------------------------|----------------------|-----------------0---|
 |--------------------------|--------------14------|-----------------2---|
 |--------------------------|-16------16-------16--|-(16)----(16)--------|
 |-(17)---------------------|-17--17---------------|---------------------|
 |--------19-19-19-19-19----|----------------------|---------------------|
 |-----------------------|-------------------------|---------------------------|
 |-----------------------|-3-----------------------|---------------------------|
 |--2-(2)--(2)-4-(4)-2-4-|---4-(4)--(4)--(4)---2-4-|-2-------------------------|
 |-----------------------|-------------------4-----|---4-4-2-0---0-(0)---------|
 |-----------------------|-------------------------|-----------2-------2-(2)---|
 |-----------------------|-------------------------|---------------------------|
 |---------------|----------------------|----------------|--------------|
 |---------------|----------------------|----------------|--------------|
 |---------------|----------------------|----------------|--------------|
 |----------0----|----------------------|--------------0-|-(0)----0-----|
 |----0--2-----2-|-(2)--(2)---------2-2-|-(2)----(2)-----|-----------2--|
 |---------------|----------4-2-0-------|----------------|--------------|
 |------------------|-5----(5)----|-0---4-2-(2)----------------|
 |------------------|-------------|---3----------3-5-7---------|
 |--------------2-4-|-------------|--------------------7-(7)---|
 |------------------|-------------|----------------------------|
 |-(2)----(2)-------|-------------|----------------------------|
 |------------------|-------------|----------------------------|
 |------------------------|---------------|-------------|--------|
 |--------7---5-7---------|---------------|-------------|--------|
 |--7-------7-------------|---------------|-------------|--------|
 |----9-7-----------------|---------------|-------------|--------|
 |------------------------|---------------|-------------|--------|
 |------------------------|---------------|-------------|--------|

 


 |


 | Gtr IV


 

 
 |-----------------6-(6)--|-(6)----(6)----|---9--(9)----|-(9)----|
 |------------------------|---------------|-------------|--------|
 |------------------------|---------------|-------------|--------|
 |------------------------|---------------|-------------|--------|
 |------------------------|---------------|-------------|--------|
 |------------------------|---------------|-------------|--------|

 


 


 Gtr IV


 

 
 |-(9)------------------|--------------------------|------------------------|
 |-----10-9-7-(7)-5-3-2-|-(2)-3-(3)-----3----------|------------------------|
 |----------------------|-----------4-2---4-2---4--|-4-------4-(4)----------|
 |----------------------|---------------------4----|---4-2-0-------4-2-0----|
 |----------------------|--------------------------|---------------------2--|
 |----------------------|--------------------------|------------------------|
 |---------------------|---------------------|
 |---------------------|---3-(3)-5-5-5-(5)-3-|
 |-----------2-1-(1)-2-|-4-------------------|
 |-2-2-(2)-4-----------|---------------------|
 |---------------------|---------------------|
 |---------------------|---------------------|
 |--------------------|----------------------|
 |-5-5-(5)--(5)-------|-5--3-2-5-(5)-3-2-5---|
 |----------------6-4-|------4---------4-----|
 |------------------7-|----------------------|
 |--------------------|----------------------|
 |--------------------|----------------------|
 |----------------------------|-------------------|
 |-3-2-5-(5)-3-5-(5)-5-(5)--3-|-5--3-5-5--3-5-3---|
 |---4---------------7-(7)----|--------7----------|
 |----------------------------|-------------------|
 |----------------------------|-------------------|
 |----------------------------|-------------------|

 


 ===========Liquid Tension Experiment - Acid Rain


 


 

 
 E|-----------------------------------|---------------------------------|-------------
 B|-----------------------------------|---------------------------------|-------------
 G|-----------------------------------|---------------------------------|-------------
 D|-----------------------------------|---------------------------------|-------------
 A|-----------------------------------|-----------------5p0---7---------|-------------
 E|---7p0-------------7p0-------------|-7p0-----------------7---5p7-----|-7p0---------
 B|-------7p0-5-3-0-0-----7p0-5-3-0-0-|-----7p0-5-3-0-0-------------0-0-|-----7p0-5-3-
 E|---------------------|---------------------------------|---------------------------
 B|---------------------|---------------------------------|---------------------------
 G|---------------------|-------7-----9p7---7-------------|---------------------------
 D|---------------------|-9-7-9---7-9-----9---9-7-9-7-----|---------------------------
 A|---------------------|-----------------------------9-7-|---------------------------
 E|-----7p0-------------|---------------------------------|-7p0-------------7p0-------
 B|-0-0-----7p0-5-3-0-0-|---------------------------------|-----7p0-5-3-0-0-----7p0-5-

 


 Doubled one octave below


 

 
 E--------|---------------------------------|---------------------------------|-------
 B--------|---------------------------------|---------------------------------|-------
 G--------|---------------------------------|---------------------------------|-------
 D--------|---------------------------------|---------------------------------|-------
 A--------|-----------------5p0---7---------|---------------------------------|-10----
 E--------|-7p0-----------------7---5p7-----|-7p0-------------7p0-------------|----10-
 B--3-0-0-|-----7p0-5-3-0-0-------------0-0-|-----7p0-5-3-0-0-----7p0-5-3-0-0-|-------
 E-----------------------------|---------------------------------------|-------------
 B-----------------------------|-12-----------------12-----------------|-12----------
 G-----------------------------|----9-11---9-----------9-11---9--------|----9-11---9-
 D--9------7-----5-----4-------|---------9---12-9-9---------9---12-9-9-|---------9---
 A----9------7-----5-----4-----|---------------------------------------|-------------
 E------10-----7-----5------5--|---------------------------------------|-------------
 B-----------------------------|---------------------------------------|-------------
 E------------------------------|---------------------------------------|------------
 B---------15-14-12-0---10-12---|-12-----------------12-----------------|-15-14-12-0-
 G--------------------9---------|----9-11---9-----------9-11---9--------|------------
 D--12-9-9--------------------9-|---------9---12-9-9---------9---12-9-9-|------------
 A------------------------------|---------------------------------------|------------
 E------------------------------|---------------------------------------|------------
 B------------------------------|---------------------------------------|------------
 E------------------------------|---------------------------------------|-------------
 B----10-----10-----------------|-12-----------------12-----------------|-12----------
 G--9-----------9------9-11-----|----9-11---9-----------9-11---9--------|----9-11---9-
 D-------9-9------12-9------9-9-|---------9---12-9-9---------9---12-9-9-|---------9---
 A------------------------------|---------------------------------------|-------------
 E------------------------------|---------------------------------------|-------------
 B------------------------------|---------------------------------------|-------------
 E------------------------------|---------------------------------------|------------
 B---------15-14-12-0---10-12---|-12-----------------12-----------------|-0-5p3-0----
 G--------------------9---------|----9-11---9-----------9-11---9--------|----------4-
 D--12-9-9--------------------9-|---------9---12-9-9---------9---12-9-9-|------------
 A------------------------------|---------------------------------------|------------
 E------------------------------|---------------------------------------|------------
 B------------------------------|---------------------------------------|------------
 E-----------------------------------------|-------------------------------|---------
 B-----------------------------------------|-------------------------------|---------
 G--0--2--4-2-0-----2--0-------------------|-------------------------------|---------
 D---------------4--------4--0-------------|-------------------------------|---------
 A------------------------------7--9-7-5---|-------------------------------|---------
 E---------------------------------------9-|-7-5--------7-5--------7-5-----|-7-5-----
 B-----------------------------------------|-----0-0--0-----0-0--0-----0-0-|-----0-0-
 E-----------------------|-------------------------------|----------------------------
 B-----------------------|-------------------------------|----------------------------
 G-----------------------|-------------------------------|----------------------------
 D-----------------------|-------------------------------|-------9------7-----5-----4-
 A-----------------------|-------------------------------|-10------9------7-----5-----
 E----7-5--------7-5-----|-7-5--------7-5--------7-5-----|----10-----10-----7-----5---
 B--0-----0-0--0-----0-0-|-----0-0--0-----0-0--0-----0-0-|----------------------------
 E|-------|-------------------------------|-------------------------------|----------
 B|-------|-------------------------------|-------------------------------|----------
 G|-------|-------------------------------|-------------------------------|----------
 D|-------|-------------------------------|-------------------------------|----------
 A|-4-----|-7-5--------7-5--------7-5-----|-7-5--------7-5--------7-5-----|-7-5------
 E|----5--|-----9-7--7-----9-7--7-----9-7-|-----9-7--7-----9-7--7-----9-7-|-----9-7--
 B|-------|-------------------------------|-------------------------------|----------
 E----------------------|-------------------------------|----------------------------
 B----------------------|-------------------------------|----------------------------
 G----------------------|-------------------------------|----------------------------
 D----------------------|-------------------------------|----------------------------
 A---7-5--------7-5-----|-7-5--------7-5--------7-5-----|----------------------7-9---
 E-7-----9-7--7-----9-7-|-----9-7--7-----9-7--7-----9-7-|-7-9-7-9-10-7-10-12-7-----7-
 B----------------------|-------------------------------|----------------------------
 E----------|-------------------------------------|-----------------------------------
 B----------|-------------------------------------|-----------------------------------
 G----------|-------------------------------------|-----------------------------------
 D----------|-------------------------------------|-----------------------------------
 A---9-10---|----------------------7-9-----9-10---|----------------------7-9-----9-10-
 E-7------7-|-7-9-7-9-10-7-10-12-7-----7-7------7-|-7-9-7-9-10-7-10-12-7-----7-7------
 B----------|-------------------------------------|-----------------------------------
 E---|-------------------------------------|-------------------------------------|---
 B---|-------------------------------------|-------------------------------------|---
 G---|-------------------------------------|-------------------------------------|---
 D---|-------------------------------------|-------------------------------------|---
 A---|----------------------7-9-----9-10---|----------------------7-9-----9-10---|---
 E-7-|-7-9-7-9-10-7-10-12-7-----7-7------7-|-7-9-7-9-10-7-10-12-7-----7-7------7-|-7-
 B---|-------------------------------------|-------------------------------------|---
 E-----------------------------------|-------------------------------------|---------
 B-----------------------------------|-------------------------------------|---------
 G-----------------------------------|-------------------------------------|---------
 D-----------------------------------|-------------------------------------|---------
 A--------------------7-9-----9-10---|----------------------7-9-----9-10---|---------
 E-9-7-9-10-7-10-12-7-----7-7------7-|-7-9-7-9-10-7-10-12-7-----7-7------7-|-7-9-7-9-
 B-----------------------------------|-------------------------------------|---------
 E-----------------------------|----------|----------|---------|----------|---------|-
 B-----------------------------|----------|----------|---------|----------|---------|-
 G-----------------------------|----------|----------|---------|----------|---------|-
 D-----------------------------|----------|----------|---------|-------4--|-5-------|-
 A--------------7-9-----9-10---|-2--------|-------5--|-7-------|-------4--|-5-------|-
 E-10-7-10-12-7-----7-7------7-|-2--------|-------5--|-7-------|----------|---------|-
 B-----------------------------|----------|----------|---------|----------|---------|-
 E|----------|----------|----------|----------|----------|---------|----------|-------
 B|----------|----------|----------|----------|----------|---------|----------|-------
 G|----------|----------|----------|----------|----------|---------|----------|-------
 D|-------7--|----------|-8--------|----------|----------|---------|-------4--|-5-----
 A|-------7--|-9--------|-8--------|-2--------|-------5--|-7-------|-------4--|-5-----
 E|----------|-9--------|----------|-2--------|-------5--|-7-------|----------|-------
 B|----------|----------|----------|----------|----------|---------|----------|-------
 E---|----------|----------|----------|------------------|-------------------------|-
 B---|----------|----------|----------|------------------|-------------------------|-
 G---|----------|----------|----------|------------------|-------------------------|-
 D---|-------7--|----------|-8--------|------------------|-------------------------|-
 A---|-------7--|-9--------|-8--------|-----------9---5--|-----------9---5--7--10--|-
 E---|----------|-9--------|----------|--7---10----------|--7---10-----------------|-
 B---|----------|----------|----------|------------------|-------------------------|-
 E------------------|-------------------------|-
 B------------------|-------------------------|-
 G------------------|-------------------------|-
 D------------------|-------------------------|-
 A-----------9---5--|-----------9---5--7--10--|-
 E--7---10----------|--7---10-----------------|-
 B------------------|-------------------------|-
 E------------------------------------------14--17--15--17-15-14------14-------------
 B--15--14------14------------------14--15------------------------17------17--15--17-
 G----------16------16--14------16---------------------------------------------------
 D--------------------------17-------------------------------------------------------
 A-----------------------------------------------------------------------------------
 E-----------------------------------------------------------------------------------
 B-----------------------------------------------------------------------------------

 


 3plet


 

 
 E---------------------------------------------|-------------------------------------
 B--16------15-14------------------------------|-15--14------14------------------14--
 G------16--------16-14--16--------------------|---------16------16--14------16------
 D---------------------------16--14--12--------|-------------------------17----------
 A---------------------------------------------|-------------------------------------
 E---------------------------------------------|-------------------------------------
 B---------------------------------------------|-------------------------------------
 E-----14--17--15--17-15-14------19--19----------17----------14----------------------
 B-15------------------------17------------------------------------------17------19--
 G---------------------------------------19--18------18--16------16--14------14------
 D-----------------------------------------------------------------------------------
 E-----------------------------------------------------------------------------------
 E-----------------------------------------------------------------------------------
 B-----------------------------------------------------------------------------------
 E-----------|-----------------------------------------14--17--15--17-15-14------14--
 B-17--15----|-15--14------14------------------14--15------------------------17------
 G-----------|---------16------16--14------16----------------------------------------
 D-----------|-------------------------17--------------------------------------------
 A-----------|-----------------------------------------------------------------------
 E-----------|-----------------------------------------------------------------------
 B-----------|-----------------------------------------------------------------------

 


 3plet


 

 
 E--------------------------------------------------------|----------------------------
 B-17--15--17--16------15-14------------------------------|-15--14------14-------------
 G-----------------16--------16-14--16--------------------|---------16------16--14-----
 D--------------------------------------16--14--12--------|-------------------------17-
 A--------------------------------------------------------|----------------------------
 E--------------------------------------------------------|----------------------------
 B--------------------------------------------------------|----------------------------
 E--------------14--17--15--17-15-14------------------------------14-15-14-15-17-17-14-
 B------14--15------------------------17--14-15-17-14-17-17-14-17----------------------
 G--16---------------------------------------------------------------------------------
 D-------------------------------------------------------------------------------------
 A-------------------------------------------------------------------------------------
 E-------------------------------------------------------------------------------------
 B-------------------------------------------------------------------------------------

 


 Guitar tacet


 

 
 E--17--19--17--19--19b21--r----|--------|--------|--------|--------|----------------
 B------------------------------|--------|--------|--------|--------|----------------
 G------------------------------|--------|--------|--------|--------|-------12-16----
 D------------------------------|--------|--------|--------|--------|-12-14-------12-
 A------------------------------|--------|--------|--------|--------|----------------
 E------------------------------|--------|--------|--------|--------|----------------
 B------------------------------|--------|--------|--------|--------|----------------
 E-----------------------------------|-------12-17-19-15-------------------------------
 B-----12-17-------------------12-17-|-------------------------------------------------
 G-----------------12-16-------------|-12-14-------------18-16-19-18-17-16-------------
 D--14-------12-14-------12-14-------|-------------------------------------19-18-17-16-
 A-----------------------------------|-------------------------------------------------
 E-----------------------------------|-------------------------------------------------
 B-----------------------------------|-------------------------------------------------
 E-|-------------------------15-19-17-15-------------|-------------------------------
 B-|----15-19-15-17-15----17-------------19-17-15-14-|-17-15-14-17-15-14-------------
 G-|-------------------18----------------------------|-------------------17-16-15-14-
 D-|-17----------------------------------------------|-------------------------------
 A-|-------------------------------------------------|-------------------------------
 E-|-------------------------------------------------|-------------------------------
 B-|-------------------------------------------------|-------------------------------
 E-------------------------------|-------------------------------------------------|-
 B----15----14-12----------------|-------------------------------------------------|-
 G-12----12-------14-12----------|-------------12-------------------------12----12-|-
 D----------------------16-14-12-|-14-16-14-16----16-14-16-14-12-16-14-16----16----|-
 A-------------------------------|-------------------------------------------------|-
 E-------------------------------|-------------------------------------------------|-
 B-------------------------------|-------------------------------------------------|-
 E|----------------------------------------------|-------------------------------------
 B|----------------------------------------12----|-------------------------------14----
 G|-14-12----12-14-16-14-12-11-12-14-12-14----14-|-12-14-12-11-14-12-14-16-14-16----16-
 D|-------16-------------------------------------|-------------------------------------
 A|----------------------------------------------|-------------------------------------
 E|----------------------------------------------|-------------------------------------
 B|----------------------------------------------|-------------------------------------
 E--------------|-------------------------------------12-14-15-14-12----------15-17-19b21-
 B--------------|-------------12-14-15-14-12-14-15-15----------------15-17-19-------------
 G--14-16-14-12-|-11-12-14-14-------------------------------------------------------------
 D--------------|-------------------------------------------------------------------------
 A--------------|-------------------------------------------------------------------------
 E--------------|-------------------------------------------------------------------------
 B--------------|-------------------------------------------------------------------------


Important: The song above is NOT stored on the Chordie server. The original song is hosted at www.guitartabs.cc. Chordie works as a search engine and provides on-the-fly formatting. Chordie does not index songs against artists'/composers' will. To remove this song please click here.

This song is displayed as text-only. Transposing and tuning is only available for chordpro-songs.
Rate #1 of 5 versions

Jango Player

Login - add to songbook

SHARE PAGE  




You need to log in to post comments