Guitar Tabs, Chords and Lyrics
Login is temporarily disabled for some users. Do not panic. Will be back in an hour or two. DO NOT REREGISTER!!


Love You Too  Locksley

Acoustic guitar, standard tuning
cangtran0@yahoo.com 5/6/2010
Intro
[E] [F#] [A] [E]  
[E] [F#] [A] [E]  
Verse 1
[E] I remember the [C#m]morning when [F#]I fell in [A]love
[E] Now every [C#m]evening I just [F#]can`t get e[A]nough
Prechorus 1
[A] Right from the [AM7]start I [A7]knew it was [B]true
Chorus 1
Girl I [E]want you, I [F#]need you, I [A]love you to[E]o
I [E]want you, I [F#]need you, I [A]love you to[E]o
Verse 2
[E] Now all of these [C#]days when we`re [F#]so far [A]apart
[E] I know that you [C#]worry cuz [F#]that`s how you [A]are
Prechorus 2
[A] But darling re[AM7]member I will [A7]always be [B]true
Chorus 2
Cuz I [E]want you, I [F#]need you, I [A]love you to[E]o
I [E]want you, I [F#]need you, I l[A]ove you [Am6]too~
Instrumental break 2
[E] [F#] [A] [E]  
[E] [F#] [A] [Am6]  
Bridge
F# F# F# F#*
So you see you`ll never be alone
F# F# F# F#*
Got this feeling I just can`t let go
F# F# F# F#*
If you leave me oh would I be blue
Chorus 3
Cuz I [E]want you, I [F#]need you, I [A]love you to[E]o
I [E]want you, I [F#]need you, I l[A]ove you to[E]o
Instrumental break 3
 
 e|--------------------------------------------x4-|
 B|-----------------------------------------------|
 G|---------------11~-------------------9b--------|
 D|-9---9-9h11p9-8------6h7-7-7h9p7-7-6-----6h7h8-|
 A|-----------------------------------------------|
 E|-----------------------------------------------|

[E] [F#] [A] [E]  
[E] [F#] [A] [E]  
[E] [F#] [A] [E]  
[E] [F#] [A] [E]  
Outro
[E] Want you
[F#] Need you
[A] [A]Love [A/G#]you
[E] Want you
[F#] Need you
[A]  
*Bridge Riff
 
 e|-----------------------------------------------|
 B|-----------------------------------------------|
 G|-----------------------------------------------|
 D|-4p2-------2-----------------------------------|
 A|-----4-2h4-------------------------------------|
 E|-----------------------------------------------|

Chords
[E] [F#] [A] [C#m] [AM7] [A7] [B] [Am6] [A/G#]  
 
 e|-0-2--5--4---5--5--7--5---5--------------------|
 B|-0-2--5--5---5--5--7--7---5--------------------|
 G|-1-3--6--6---6--6--8--5---6--------------------|
 D|-2-4--7--6---6--5--9--7---7--------------------|
 A|-2-4--7--4---7--7--9--7---7--------------------|
 E|-0-2--5------5--5--7--5---4--------------------|


Important: The song above is NOT stored on the Chordie server. The original song is hosted at www.guitartabs.cc. Chordie works as a search engine and provides on-the-fly formatting. Chordie does not index songs against artists'/composers' will. To remove this song please click here.

Text color:
Chord color:
Chord grids: 
Font size:    
Page size: 

A A/G# A7 Am7 Am6 B C# C#m E F#
Rate #1 of 2 versions

Jango Player

Login - add to songbook

SHARE PAGE  




You need to log in to post comments