Guitar Tabs, Chords and Lyrics
Update 25:10. 13:00. Site is back up running again. Songbooks are recovered. Woring on getting search back up..


Amie  Lonestar

AMIE - LONESTAR
Written by Pure Praire League
Tabbed by RekonDog
Guitar I: (repeat) Guitar II: (start on 3 measure)
[(Amaj)] [(Amaj)]  
 
 ||------5-----5-----5----||-------------------------------------|
 ||------5-----5-----5----||-------------------------------------|
 ||ο--2-----2-----2------ο||---------------------9-11-9----------|
 ||ο---------------------ο||-----7-7--9-7--9/11----------11-9-7--|
 ||-----------------------||-7h9---------------------------------|
 ||-----------------------||-------------------------------------|
 |-----------------------------------|---------------------------|
 |-----------------------------------|---------------------------|
 |-----------------------------------|--------------------9-11-9-|
 |-----7-7--9-7--9/11--9-9-(9)-------|-----7-7--9-7--9/11--------|
 |-7h9-------------------------------|-7h9-----------------------|
 |-----------------------------------|---------------------------|

*let ring
 
 |-----------------------------------||
 |-8----8----------------------------||
 |---11---11-9----9-11-9-------------|| END GUITAR I
 |-------------11--------11--9--7-(7)||
 |-----------------------------------||
 |-----------------------------------||

* let ring
Verse I:
[A]I can see why y[G]ou think y[D]ou b[A]elong to m[G]e.[D]
[A]I never tried to m[G]ake you th[D]ink or l[A]et you see one thing for you[D]rself.
But now youíre o[C]ff with someone else and Iím al[D]one.
You see I th[C]ought that I could keep you for my o[E]wn.
( Tab from: http://www.guitartabs.cc/tabs/l/lonestar/amie_tab.html )
Chorus:
[A]Amie, w[G]hat you wanna [D]do? I[A] think that I c[G]ould stay with y[D]ou,
for a w[Bm]hile maybe longer if I d[E]
[A]Donít you think the t[G]ime is r[D]ight for us [A]to find.[G] [D]
[A]All the thin[G]gs we[D] thought werenít proper co[A]uld be right in time and can y[D]ou see,
[D]Which way [C]we should turn together or al[D]one?
I can ne[C]ver see whatís right or what is wr[E]ongÖ
(yeah you take to long to see)
CHORUS
CHORUS
[A]Now itís come to w[G]hat you w[D]ant, youíve had [A]yer way.[G] [D]
[A]And all the things youíre fig[G]htín for[D] just fad[A]ed into gray and can you s[D]ee,
that I d[C]onít know if itís you or if itís [D]me?
If itís o[C]ne of us, Iím sure we both will s[E]eeÖ
(wonít you look at me and tell me?)
CHORUS
Verse II:
[E]I keep, fa[A]lliní in and out of [G]love with y[D]ou. [A]Falliní in and out of [G]love wi[D]th you.
[A]Donít know what Iím gonna d[G][D]
[D] [A] [G] [D] [Amaj(add7)] [A]  
 
 I keep, falliní in and out of l-o-v-e, with y---o----uÖ


Important: The song above is NOT stored on the Chordie server. The original song is hosted at www.guitartabs.cc. Chordie works as a search engine and provides on-the-fly formatting. Chordie does not index songs against artists'/composers' will. To remove this song please click here.

Text color:
Chord color:
Chord grids: 
Font size:    
Page size: 

A Bm C D E G
Rate #2 of 4 versions

Jango Player

Login - add to songbook

SHARE PAGE  



You need to log in to post comments