Guitar Tabs, Chords and Lyrics
Server problems seems to be fixed. Chordie has been experiencing problems with songs disappearing. These issues now seems to be fixed, but still verifying the fix. If you find anything strange, please email admin@chordie.com.


I'm Already There  Lonestar

Capo 1st Fret
Intro - D Bm G D
Intro Tab (with capo):
 
 |--2h3--2-0-0-----|--2h3--2-0-0-----|-----------|
 |-------------3-3-|-------------3-3-|--0--------|
 |-----------------|-----------------|----0-0h2--|
 |-----------------|-----------------|-----------|
 |-----------------|-----------------|-----------|
 |-----------------|-----------------|-----------|

[A]He called her on the road, [Bm]from a lonely cold hotel room
[D]Just to hear her say "I love you" one more [Asus4]time.[A]
[A]When he heard the sound of the [Bm]kids laughin' in the background
[D]He had to wipe away a tear from his [A]eye
[Bm]Then a voice came on the phone, said "[A]Daddy, when you comin' home?"
[D]He said the first thing that came [G]to [A]his [G]mind
[A]I'm already [D]there, take a [A]look [Bm]around
I'm the sunshine [A]in your h[G]air, I'm the shadow on the g[D]round
[A]I'm the whisper in the w[D]ind, I'm your imagin[A]ary f[Bm]riend
And I [F#m]know I'm in your [G]prayers,
[A]I'm already t[D]here
REPEAT INTRO ? D Bm G D
 
 |--2-3-2-0-0-----|-----------------|
 |------------3-3-|--3-2-0----------|
 |----------------|--------2-0-0h2--|
 |----------------|-----------------|
 |----------------|-----------------|
 |----------------|-----------------|

[A]She got back on the phone, said [Bm]I really miss you darlin',
Don't [D]worry about the kids, they'll be a[Asus4]llright.[A]
Wish I was in your arms, lyin'[Bm] right there beside you,
But I k[D]now that I'll be in your dreams t[A]onight.
And I'll[Bm] gently kiss your lips, touch you [A]with my fingertips,
[D]So turn out the light, and [G]close [A]your [G]eyes.
[A]I'm already [D]there, don't m[A]ake a[Bm] sound,
I'm the beat in [A]your [G]heart, I'm the moonlight shining [D]down,
I'm the [A]whisper in the [D]wind, and I'll be there 't[A]ill the [Bm]end
Can you [F#m]feel the love that we [G]share,
[A]I'm already [D]there
[Em7]We may [D/F#]be a tho[G]usand miles apart,
[F]But I'll be [C]with you, wh[A]erever you are
[A]I'm already [D]there, take a [A]look [Bm]around
I'm the sunshine [A]in your [G]hair, I'm the shadow on the [D]ground
[A]I'm the whisper in the w[D]ind, and I'll be there 't[A]ill the [Bm]end
Can you f[F#m]eel the love that we s[G]hare,
[A]I'm already ther[Bm]e[A] [G] [D/F#] [Em7] [A]
I'm already the[D]re[Bm] [G] [D]
End Tab:
 
 |--2h3--2-0-0-----|--2h3--2-0-0-----|---------------|
 |-------------3-3-|-------------3-3-|--3-1----------|
 |-----------------|-----------------|------0--------|
 |-----------------|-----------------|--------2-2h4--|
 |-----------------|-----------------|---------------|
 |-----------------|-----------------|---------------|


Important: The song above is NOT stored on the Chordie server. The original song is hosted at www.guitartabs.cc. Chordie works as a search engine and provides on-the-fly formatting. Chordie does not index songs against artists'/composers' will. To remove this song please click here.

Text color:
Chord color:
Chord grids: 
Font size:    
Page size: 

A Asus4 Bm C D D/F# Em7 F F#m G
Rate #1 of 7 versions

Login - add to songbook

SHARE PAGE  




You need to log in to post comments