Guitar Tabs, Chords and Lyrics
Server problems seems to be fixed. Chordie has been experiencing problems with songs disappearing. These issues now seems to be fixed, but still verifying the fix. If you find anything strange, please email admin@chordie.com.


Mr. Mom  Lonestar

Mr.MOM by: Lonestar
Tab by: Aaron Meredith
~ = let ring
/ = slide up
b = bend note
r = return note bend
Chords used: (Capo 3rd fret)
[(G)] [(Em)] [(C)] [(D)] [(Am)] [(Am7)] [(Cmaj7)] [(Em/G#)]  
 
 e|--|---3-----3-----3-----2-----0-----0-------0-------0-----|
 B|--c---3-----3-----3-----3-----1-----1-------0-------0-----|
 G|--a---0-----0-----0-----2-----2-----0-------0-------0-----|
 D|--p---0-----2-----2-----0-----2-----2-------2-------2-----|
 A|--o---2-----2-----3-----0-----0-----0-------3-------4-----|
 E|--|---3-----0-----x-----x-----x-----x-------x-------x-----|

Intro Rhythm: G - Em - C - D = 2x's
Intro solo: (played several times during song)
 
 e|--|-------3--/5--3~-------3---5b--b5r-3---3--|
 B|--c---3-5-------------3-5---------------5----|
 G|--a------------------------------------------|
 D|--p------------------------------------------|
 A|--o------------------------------------------|
 E|--|------------------------------------------|
 e|--|-------3--/5--3~-------3---5b--b5r-3-------|
 B|--c---3-5-------------3-5---------------5--3~-|
 G|--a-------------------------------------------|
 D|--p-------------------------------------------|
 A|--o-------------------------------------------|
 E|--|-------------------------------------------|

Verse 1:
[D]Lost my job, ca[G]me home mad got a h[C]ug and a kiss and that's too bad,
She said[D], I can go to w[G]ork until you fi[C]nd another job,
I thought[D], I like the so[G]und of that, w[C]atch tv and take long naps,
[Am]go from a hard[Am7] working dad, to b[C]eing mister [D]mom, well
Chorus:
[G]Pampers melt in a M[Em]aytag dryer, cr[C]ayons go up o[D]ne drawer higher,
[G]Rewind Barney for the [Em]fifteenth time, b[C]reakfast six, [D]naps at nine,
The[G]re's bubble gum in the [Em]baby's hair, sw[C]eet potatoes in my l[D]azy chair,
Been c[Cmaj7]razy all day long, and it's[Em/G#] only Monday, [D]Mister[G] M[-]om[Em],[-] [C] [-] [D]
( Tab from: http://www.guitartabs.cc/tabs/l/lonestar/mr_mom_tab_ver_3.html )
Verse 2:
[D]Football, soccer [G]and ballet, s[C]queeze in scouts and PTA, and there's,
[D]That shopin [G]list she left that's[C] seven pages long,
[D]How much smoke can [G]one stove make, the[C] kids won't eat my charcoal cake,
It's [Am]more than any[Am7] man can take. [C]Being Mister [D]Mom, cause,
Chorus:
[G]Pampers melt in a M[Em]aytag dryer, cr[C]ayons go up o[D]ne drawer higher,
[G]Rewind Barney for the [Em]sixteenth time, b[C]reakfast six, [D]naps at nine,
Ther[G]e's bubble gum in the [Em]baby's hair, sw[C]eet potatoes in my l[D]azy chair,
Been c[Cmaj7]razy all day long, and it's [Em/G#]only Monday, M[D]ister [G]Mom,
Solo rhythm: G - Em - C - D = 2x's)
Solo: (electric guitar-light overdrive-no capo)
 
 e|---------6-------6-----------------------6--------|
 B|-6---6-------6------6-----------------------6~~---|
 G|-5b--5b------5b-----5br--3-3-------3-5b----b5r~---|
 D|------------------------------3-5h----------------|
 A|--------------------------------------------------|
 E|--------------------------------------------------|
 e|----------6------------------------------------13---------13-13b~..|
 B|-6---6-------6----6-------------------11~--13b----b13r-11----------|
 G|-5b--5b------5b--b5r--3--------3--/12------------------------------|
 D|--------------------------3-5h-------------------------------------|
 A|-------------------------------------------------------------------|
 E|-------------------------------------------------------------------|

Bridge:
[Am]Before I fall into [Am7]bed tonight, if the [G]dog didn't eat the classified's,
I'm[Em/G#] gonna look just one more t[D]ime,
Ending:
[G]Pampers melt in a M[Em]aytag dryer, cr[C]ayons go up o[D]ne drawer higher,
[G]Rewind Barney for the [Em]eighteenth time, [C]breakfast six,[D] naps at nine,
Ther[G]e's bubble gum in the [Em]baby's hair, sw[C]eet potatoes in my l[D]azy chair,
Been c[Cmaj7]razy all day long,[Em/C#] oh been [Cmaj7]crazy all day long,
Am7 D G - Em - C - D = 2x's
and it's only Monday, Mister Mom,
[G]Balancin checkbooks, [Em]juggling bills, th[C]ought there was nothin [D]to it,
G Em C D G-Em -C-D =2x
Baby now I know how you feel, What I don't know is how you do it,
[G] Honey, you're my hero

Important: The song above is NOT stored on the Chordie server. The original song is hosted at www.guitartabs.cc. Chordie works as a search engine and provides on-the-fly formatting. Chordie does not index songs against artists'/composers' will. To remove this song please click here.

Text color:
Chord color:
Chord grids: 
Font size:    
Page size: 

Am Am7 C Cmaj7 D Em Em/C# Em/G# G
Rate #2 of 7 versions

Jango Player

Login - add to songbook

SHARE PAGE  




You need to log in to post comments