Guitar Tabs, Chords and Lyrics
Major upgrade!! After one year development the new version of Chordie is now online! Please give feedback.


Canción de lejos  Los Bunkers

Intro:
[C] [A#] [D#] [G]  
[A)]  
[C] Las trampas se [A#]han abierto
[D#]sin saber que esp[G]eras hoy de m[C]í.
1[A#]400 pasos
[D#]más de los que alg[G]una vez te vi.
[B)]  
*[C] Si [Am-Em]tú no p[G]uedes entend[C]er
que [Am-Em]yo ya n[G]o quiero vo[Am]lver
Ya[Am7+] no, [Am7]no me esperar[D]án
los [F]obreros silban [C]al pasar
bajo el um[G]bral
de su sole[Fm]dad. *
[A)] Mi amor está borracho
disfrazado de payaso
papá se fue de casa
lágrimas en los regalos
[B)] Si tú no puedes entender
que yo ya no quiero volver
ya no, no me esperarán
las sirenas suenan todos
tienen que ca[E]llar.
[C)]  
[Am] Las sombras se [E]van cayendo
[Gm] sobre Concep[D]ción despierto
[Am] no esperes que [E]los recuerdos
me ha[Am]gan regres[D]ar una vez m[Fm]ás...
B)Si tú entiendes de una vez...
La guitarra#2 toca esto en las partes:
[B)]  
[C] [Am] [Em] [G]  
 
 e------------------------------------|
 B------------------------------------|
 G------------------------------------|
 D------0-2---------2-2-3-2-5-5-3-2---|
 A--3-3-----0-0-2-3-------------------|
 E------------------------------------|

[C] [Am] [Em] [G]  
 
 e------------------------------------|
 B------------------------------------|
 G------------------------------------|
 D------0-2---------2-2-3-2-5-2-6-2---|
 A--3-3-----0-0-2-3-------------------|
 E------------------------------------|

[Am] [Am7+] [Am7] [D]  
 
 e-----------------------------------------------------------------|
 B--------5--------------5--------------5------------7---8-7---7---|
 G----5--------5-----5--------5-----5--------5---5/7---7-----7---7-|
 D--7---7----7---7-6---6----6---6-5---5----5---5-------------------|
 A-----------------------------------------------------------------|
 E-----------------------------------------------------------------|

F C G I Fm I E I
 
 e-----------------------------------I--------1----I-------------|I
 B-----------------------------------I--------1----I-------------|I
 G-----------------------------------I--------1----I-------------|I
 D--3--3--3/5-3--2--3--3/5-5-3-2-0~--I--2-3~--3----I--2-3~--2----|I
 A-----------------------------------I--------3----I-------------|I
 E-----------------------------------I--------1----I-------------|I

I la 1era vez I la 2da vez I
[C)]  
[Am] [E] [Gm] [D]  
 
 e--------0--------0--------3--------2--|
 B------1--------0--------3--------3----|
 G----2--------1--------3--------2------|
 D-----------------------------0--------|
 A--0-----------------------------------|
 E-----------0--------3-----------------|

[Am] [E] [Am] [D] [Fm]  
 
 e--------0--------0--0~---2~---1~------|
 B------1--------0----1~---3~---1~------|
 G----2--------1------2~---2~---1~------|
 D--------------------2~---0~---3~------|
 A--0-----------------0~--------3~------|
 E-----------0------------------1~------|

Creo que está correcta cualquier duda a mi correo radioandroid@hotmail.com

Important: The song above is NOT stored on the Chordie server. The original song is hosted at www.guitartabs.cc. Chordie works as a search engine and provides on-the-fly formatting. Chordie does not index songs against artists'/composers' will. To remove this song please click here.

Text color:
Chord color:
Chord grids: 
Font size:    
Page size: 

A# Am Am7 Am7+ C D D# E Em F Fm G Gm
Rate #1 of 2 versions

Login - add to songbook

SHARE PAGE  



You need to log in to post comments