Guitar Tabs, Chords and Lyrics
Server problems seems to be fixed. Chordie has been experiencing problems with songs disappearing. These issues now seems to be fixed, but still verifying the fix. If you find anything strange, please email admin@chordie.com.


Siguiendo la Luna  Los Fabulosos Cadillacs

 
 E---------------------------------------------|
 B---------------------------------------------|
 G---------------------------------------------|
 D---------------------------------------------|
 A---------------------------------------------|
 E--4--5-5--4--4--5--5--4--4--5--5--5--5--(5)--|

intro: Bm - D
Siguiendo la luna no llegar[D]e lejos
tan lejos como se pueda l[Em]legar
las cosas que dije no tienen s[D]entido
no puedo [C]detenerme
ponerme a p[G]ensar. [Bm]
Siguiendo la luna y su vuelta i[D]nvisible
la noche seguro me alcan[Em]zará
no es que tu mirada me sea i[D]mposible
tan solo es la f[C]orma en que cami[G]nás.
[C]Vamos mi cariño que todo esta bi[G]en
esta noche cambiaré [Bm]
te juro que cambiaré[D]
[C]vamos mi cariño ya no llores [G]más
por vos yo bajaría el so[Bm]l
o me hundiría en el mar[D].
y est[C]o parece verdad para [G]
Suena como un crimen lo que tu [D]me has hecho
( Tab from: http://www.guitartabs.cc/tabs/l/los_fabulosos_cadillacs/siguiendo_la_luna_tab.html )
deberías y a parar a la pri[Em]sion
suena como un crimen que me haya[D]s mentido
que hayas e[C]ngañado a este co[G]razón. [Bm]
Siguiendo la luna no llegaré [D]lejos
tan lejos como se pueda l[Em]legar
son casi las 4 de la m[D]adrugada
mi casa bril[C]laba cruzando ese ma[G]r.
[Bm] [-] [D]  
[Em] [D] [Bm]  
 
 --7--------|-/12--12--10-|-8-8-8--7--(7)/8--7--5-|---------|------------|
 --8--10--8-|-------------|-----------------------|-8--8--7-|------------|
 --9--------|-------------|-----------------------|---------|-4-(4)/11-9-|
 -----------|-------------|-----------------------|---------|------------|
 -----------|-------------|-----------------------|---------|------------|
 -----------|-------------|-----------------------|---------|------------|

[D]  
 
 -------------------------------------|-------------------------------------|
 -------------------------------------|---------7--10--8^7^5--7--8--7-------|
 -4--(4)/11--9--7--12--9-(11)-9--7----|---7--9-------------------------9--7-|
 -----------------------------------7-|-7-----------------------------------|
 -------------------------------------|-------------------------------------|
 -------------------------------------|-------------------------------------|

Fin: D - C

Important: The song above is NOT stored on the Chordie server. The original song is hosted at www.guitartabs.cc. Chordie works as a search engine and provides on-the-fly formatting. Chordie does not index songs against artists'/composers' will. To remove this song please click here.

Text color:
Chord color:
Chord grids: 
Font size:    
Page size: 

Bm C D Em G
Rate #1 of 3 versions

Login - add to songbook

SHARE PAGE  



You need to log in to post comments