Guitar Tabs, Chords and Lyrics
Server problems seems to be fixed. Chordie has been experiencing problems with songs disappearing. These issues now seems to be fixed, but still verifying the fix. If you find anything strange, please email admin@chordie.com.


Antifa Hooligans  Los Fastidios

 
 --------------------------------------------------------

Band: Los Fastidios
Song: Antifa Hooligans
Album: Siempe contra (KOB/Mad Butcher Records)
Tabbed by Andreas Karlsson (Apr 5, 2007)
 
 --------------------------------------------------------

This is a very basic three chord punk rock
tune, entirely based around these patterns:
Chorus:
[B5] [E5] [B5] [F#5]  
[B5] [E5] [F#5]  
Verse:
[E5] [F#5] [B5]  
[E5] [F#5] [B5]  
[E5] [F#5] [B5]  
[E5] [F#5]  
 
 --------------------------------------------------------

(p.m.) = palm mute
(n.c.) = no chord
p = pull-off
Standard tuning
145 BPM
 
 --------------------------------------------------------

INTRO:
B5 (hold) [Kick drum enters]
 
 e|-------------------------------------------------|
 B|-------------------------------------------------|
 G|-------------------------------------------------|
 D|--9-9-9~~~~~~~~----------------------------------|
 A|--9-9-9~~~~~~~~----------------------------------|
 E|--7-7-7~~~~~~~~----------------------------------|

(n.c.)
Come on come on
Come on come on
Come on come on
(n.c.) F#5
 
 e|-------------------------------------------------|
 B|-------------------------------------------------|
 G|-------------------------11-11-11-11-11-11-11-11-|
 D|-------------------------11-11-11-11-11-11-11-11-|
 A|-------------------------9--9--9--9--9--9--9--9--|
 E|-------------------------------------------------|

An - ti - fa - hooli - gans
CHORUS:
[B5] [E5]  
 
 e|-------------------------------------------------|
 B|-------------------------------------------------|
 G|-------------------------9--9--9--9--9--9--9--9--|
 D|-9-----9--9--9--9--9--9--9--9--9--9--9--9--9--9--|
 A|-9-----9--9--9--9--9--9--7--7--7--7--7--7--7--7--|
 E|-7-----7--7--7--7--7--7--------------------------|

Come on - come on
[B5] [F#5]  
 
 e|-------------------------------------------------|
 B|-------------------------------------------------|
 G|-------------------------11-11-11-11-11-11-11-11-|
 D|-9-----9--9--9--9--9--9--11-11-11-11-11-11-11-11-|
 A|-9-----9--9--9--9--9--9--9--9--9--9--9--9--9--9--|
 E|-7-----7--7--7--7--7--7--------------------------|

Come on - come on
[B5] [E5]  
 
 e|-------------------------------------------------|
 B|-------------------------------------------------|
 G|-------------------------9--9--9--9--9--9--9--9--|
 D|-9-----9--9--9--9--9--9--9--9--9--9--9--9--9--9--|
 A|-9-----9--9--9--9--9--9--7--7--7--7--7--7--7--7--|
 E|-7-----7--7--7--7--7--7--------------------------|

Come on - come on
[F#5]  
 
 e|-------------------------------------------------|
 B|-------------------------------------------------|
 G|-11-11-11-11-11-11-11-11-11-11-11-11-11-11-11-11-|
 D|-11-11-11-11-11-11-11-11-11-11-11-11-11-11-11-11-|
 A|-9--9--9--9--9--9--9--9--9--9--9--9--9--9--9--9--|
 E|-------------------------------------------------|

An - ti - fa - hooli - gans
[Repeat CBORUS] (Come on come on ...)
VERSE:
E5 E5(p.m.) F#5(p.m.)
 
 e|-------------------------------------------------|
 B|-------------------------------------------------|
 G|-9-----------------------------------------------|
 D|-9-----9--9--9--9--9--9--11-11-11-11-11-11-11-11-|
 A|-7-----7--7--7--7--7--7--9--9--9--9--9--9--9--9--|
 E|-------------------------------------------------|

In the streets on the terra - ces
B5(p.m.)
 
 e|-------------------------------------------------|
 B|-------------------------------------------------|
 G|-------------------------------------------------|
 D|-------------------------------------------------|
 A|-9--9--9--9--9--9--9--9--9--9--9--9--9--9--9--9--|
 E|-7--7--7--7--7--7--7--7--7--7--7--7--7--7--7--7--|

We are singing - and we scream
E5(p.m.) F#5(p.m.)
 
 e|-------------------------------------------------|
 B|-------------------------------------------------|
 G|-------------------------------------------------|
 D|-9--9--9--9--9--9--9--9--11-11-11-11-11-11-11-11-|
 A|-7--7--7--7--7--7--7--7--9--9--9--9--9--9--9--9--|
 E|-------------------------------------------------|

All our hate for the nazi - scum
B5(p.m.)
 
 e|-------------------------------------------------|
 B|-------------------------------------------------|
 G|-------------------------------------------------|
 D|-------------------------------------------------|
 A|-9--9--9--9--9--9--9--9--9--9--9--9--9--9--9--9--|
 E|-7--7--7--7--7--7--7--7--7--7--7--7--7--7--7--7--|

We are coming - start to run
[E5]In the streets on the [F#5]terraces
[B5] We are singing and we scream
[E5]All our hate for the [F#5]nazi scum
 
 F#5(p.m.) ----- build up ------->
 e|-------------------------------------------------|
 B|-------------------------------------------------|
 G|-------------------------11-11-11-11-11-11-11-11-|
 D|-11-11-11-11-11-11-11-11-11-11-11-11-11-11-11-11-|
 A|-9--9--9--9--9--9--9--9--9--9--9--9--9--9--9--9--|
 E|-------------------------------------------------|

[Repeat CBORUS] (Come on come on ...)
[Repeat CBORUS] (Come on come on ...)
[Repeat VERSE] (In the streets ...)
[Repeat CBORUS] (Come on come on ...)
[B5] Come on come [E5]on
[B5] Come on come [F#5]on
[B5] Come on come [E5]on
F#5(p.m.)
 
 e|-------------------------------------------------| R
 B|-------------------------------------------------| H
 G|-11-11-11-11-11-11-11-11-11-11-11-11-11-11-11-11-| Y
 D|-11-11-11-11-11-11-11-11-11-11-11-11-11-11-11-11-| T
 A|-9--9--9--9--9--9--9--9--9--9--9--9--9--9--9--9--| H
 E|-------------------------------------------------| M
 e|-------------------------------------------------|
 B|-------------------------------------------------| L
 G|-------------------------------------9--8--------| E
 D|-------------------------------------------11-8--| A
 A|-------------------------------------------------| D
 E|-------------------------------------------------|

An - ti - fa - hooli - gans
SOLO:
E5(p.m.) F#5(p.m.)
 
 e|-----------------|-----------------|
 B|-----------------|-----------------|
 G|-----------------|-----------------|
 D|-9-----------9---|-----------------|
 A|-----------------|-11-9------------|
 E|-----------------|-----------------|

B5(p.m)
 
 e|-----------------|-----------------|
 B|-----------------|-----------------|
 G|-----------------|-8---8-9---8-----|
 D|-9---------------|---11--------11--|
 A|-----------------|-----------------|
 E|-----------------|-----------------|

E5(p.m.) F#5(p.m.)
 
 e|-----------------|-----------------|
 B|-------------9---|-----------9-9-9-|
 G|-9-------------9-|-11--------------|
 D|-----------------|-----------------|
 A|-----------------|-----------------|
 E|-----------------|-----------------|

B5(p.m)
 
 e|-----------------|-----------------|
 B|-----------------|-----------------|
 G|-8---------------|-8-----------8---|
 D|-----------------|-------11--------|
 A|-----------------|-----------------|
 E|-----------------|-----------------|

E5(p.m.) F#5(p.m.)
 
 e|-----------------|-----------------|
 B|-----------------|-----------------|
 G|-------------8---|-------------8---|
 D|-11----9---------|-11----9---------|
 A|-----------------|-----------------|
 E|-----------------|-----------------|

B5(p.m.)
 
 e|-----------------|-----------------|
 B|-----------------|-----------------|
 G|------8----------|---------8-------|
 D|-11--------------|-----------11----|
 A|-----------------|-----------------|
 E|-----------------|-----------------|

E5(p.m.) F#5(p.m.)
 
 e|-----------------|-----------------|
 B|-----------------|-----------------|
 G|-----------------|-----------------|
 D|-9-----------9---|-----------------|
 A|-----------------|-11-9------------|
 E|-----------------|-----------------|
 F#5(p.m.) --- build up --->
 e|-----------------|-----------------|
 B|-----------------|-11-9--7---9-----|
 G|-----------------|-------------9p8-|
 D|-----------------|-----------------|
 A|-----------------|-----------------|
 E|-----------------|-----------------|

B5 (mute)
 
 e|-----------------|
 B|-----------------|
 G|-----------------|

D|-9~~~~ hold ~~~~-|
 
 A|-----------------|
 E|-----------------|

BREAK:
(n.c.)
Come on come on
Come on come on
Come on come on
Antifa hooligans
Come on come on
Come on come on
Come on come on
[F#5] [F#5] [F#5]  
 
 e|------------------------------------------------|
 B|------------------------------------------------|
 G|------------------------------------------------|
 D|------4----------4----------4-----pick scrape->-|
 A|------4----------4----------4-------------------|
 E|------2----------2----------2-------------------|

An - ti - fa - hooli - gans
[Repeat CBORUS] (Come on come on ...)
[Repeat CBORUS] (Come on come on ...)
ENDING:
[B5] Come on come [E5]on (Oh oh oh)
[B5] Come on come [F#5]on (Oh oh oh)
[B5] Come on come [E5]on
[F#5]Antifa hooligans
[B5] Come on come [E5]on (Oh oh oh)
[B5] Come on come [F#5]on (Oh oh oh)
[B5] Come on come [E5]on
 
 F#5 ----- slow down ----------------------->
 e|------------------------------------------------|
 B|------------------------------------------------|
 G|-11-11-11-11-11-11-11-11-11-11-11-11-11-11-11---|
 D|-11-11-11-11-11-11-11-11-11-11-11-11-11-11-11---|
 A|-9--9--9--9--9--9--9--9--9--9--9--9--9--9--9--0-|
 E|----------------------------------------------0-|

An - ti - fa - hooli - gans
B5 (hold)
 
 e|------------------------------------------------|
 B|------------------------------------------------|
 G|------------------------------------------------|
 D|-9~~~~~~~~~~~~~~~~~~~~--------------------------|
 A|-9~~~~~~~~~~~~~~~~~~~~--------------------------|
 E|-7~~~~~~~~~~~~~~~~~~~~--------------------------|
 --------------------------------------------------------


Important: The song above is NOT stored on the Chordie server. The original song is hosted at www.guitartabs.cc. Chordie works as a search engine and provides on-the-fly formatting. Chordie does not index songs against artists'/composers' will. To remove this song please click here.

Text color:
Chord color:
Chord grids: 
Font size:    
Page size: 

B5 E5 F#5
Rate #1 of 2 versions

Login - add to songbook

SHARE PAGE  




You need to log in to post comments