Guitar Tabs, Chords and Lyrics
Server problems seems to be fixed. Chordie has been experiencing problems with songs disappearing. These issues now seems to be fixed, but still verifying the fix. If you find anything strange, please email admin@chordie.com.


Contiamo su di voi  Los Fastidios

 
 -------------------------------------------------------------------------------

Band: Los Fastidios
Song: Contiamo Su Di Voi
Album: Contiamo Su Di Voi! (KOB/Mad Butcher Records)
Tabbed by Andreas Karlsson (Mar 24, 2007)
 
 -------------------------------------------------------------------------------

Another really simple punk song,
based around these chord patterns:
Intro:
C5 D5 F5 G5 (x2)
Solo/Interlude:
C5 G5 A5 F5 (x2)
Verse:
[C5] [G5] [A5] [F5]  
[C5] [G5] [A5] [F5] [G5]  
Chorus:
C5 D5 F5 G5 (x4)
 
 -------------------------------------------------------------------------------

- Standard tuning
- 216 BPM
 
 -------------------------------------------------------------------------------

INTRO:
[C5] [D5] [F5] [G5]  
 
 e|---------------------------------|---------------------------------|
 B|---------------------------------|---------------------------------|
 G|-5---------------7---------------|---------------------------------|
 D|-5---------------7---------------|-3---------------5---------------|
 A|-3---------------5---------------|-3---------------5---------------|
 E|---------------------------------|-1---------------3---------------|

1. Noi contiamo su di voi nouve genera - zioni di rebelli
2. Noi contiamo su di voi per portare avanti la rivolta - Oi!
SOLO:
[C5] [G5]  
 
 e|---------------------------------|---------------------------------| L
 B|---------------------------------|---------------------------------| E
 G|-5---5---5---5---5---5-4---4-5---|-7---7---7---7---7---7-5---5-7---| A
 D|---------------------------------|---------------------------------| D
 e|---------------------------------|---------------------------------| R
 B|---------------------------------|---------------------------------| H
 G|-5---5-5-5-5-5-5-5-5-5-5-5-5-5-5-|---------------------------------| Y
 D|-5---5-5-5-5-5-5-5-5-5-5-5-5-5-5-|-5---5-5-5-5-5-5-5-5-5-5-5-5-5-5-| T
 A|-3---3-3-3-3-3-3-3-3-3-3-3-3-3-3-|-5---5-5-5-5-5-5-5-5-5-5-5-5-5-5-| H
 E|---------------------------------|-3---3-3-3-3-3-3-3-3-3-3-3-3-3-3-| M

[A5] [F5]  
 
 e|---------------------------------|---------------------------------| L
 B|-5---------------5---------------|-6-----5-------------------------| E
 G|-------7-----5---------7-----5---|-------------7---5-----7-----5---| A
 D|---------------------------------|---------------------------------| D
 e|---------------------------------|---------------------------------| R
 B|---------------------------------|---------------------------------| H
 G|---------------------------------|---------------------------------| Y
 D|-7---7-7-7-7-7-7-7-7-7-7-7-7-7-7-|-3---3-3-3-3-3-3-3-3-3-3-3-3-3-3-| T
 A|-7---7-7-7-7-7-7-7-7-7-7-7-7-7-7-|-3---3-3-3-3-3-3-3-3-3-3-3-3-3-3-| H
 E|-5---5-5-5-5-5-5-5-5-5-5-5-5-5-5-|-1---1-1-1-1-1-1-1-1-1-1-1-1-1-1-| M

[C5] [G5] [G#5]  
 
 e|---------------------------------|---------------------------------| L
 B|---------------------------------|---------------------------------| E
 G|-5---5-5-5-5-5---5-5-5-4---4-5---|-7---7---7---7-7-7---7-5---5-7---| A
 D|---------------------------------|---------------------------------| D
 e|---------------------------------|---------------------------------| R
 B|---------------------------------|---------------------------------| H
 G|-5---5-5-5-5-5-5-5-5-5-5-5-5-5-5-|---------------------------------| Y
 D|-5---5-5-5-5-5-5-5-5-5-5-5-5-5-5-|-5---5-5-5-5-5-5-5-5-5-5-5---6---| T
 A|-3---3-3-3-3-3-3-3-3-3-3-3-3-3-3-|-5---5-5-5-5-5-5-5-5-5-5-5---6---| H
 E|---------------------------------|-3---3-3-3-3-3-3-3-3-3-3-3---4---| M

[A5] [F5]  
 
 e|---------------------------------|---------------------------------| L
 B|-5---------------5---------------|-6-----5-------------------------| E
 G|-------7-----5---------7-----5---|-------------7---5-----7-----5---| A
 D|---------------------------------|---------------------------------| D
 e|---------------------------------|---------------------------------| R
 B|---------------------------------|---------------------------------| H
 G|---------------------------------|---------------------------------| Y
 D|-7---7-7-7-7-7-7-7-7-7-7-7-7-7-7-|-3---3-3-3-3-3-3-3-3-3-3-3-3-3-3-| T
 A|-7---7-7-7-7-7-7-7-7-7-7-7-7-7-7-|-3---3-3-3-3-3-3-3-3-3-3-3-3-3-3-| H
 E|-5---5-5-5-5-5-5-5-5-5-5-5-5-5-5-|-1---1-1-1-1-1-1-1-1-1-1-1-1-1-1-| M
 End on: e|------- L
 B|------- E
 G|-5----- A
 D|------- D

VERSE 1:
[C5] [G5]  
 
 e|---------------------------------|---------------------------------|
 B|---------------------------------|---------------------------------|
 G|-5---5-5-5-5-5-5-5-5-5-5-5-5-5-5-|---------------------------------|
 D|-5---5-5-5-5-5-5-5-5-5-5-5-5-5-5-|-5---5-5-5-5-5-5-5-5-5-5-5-5-5-5-|
 A|-3---3-3-3-3-3-3-3-3-3-3-3-3-3-3-|-5---5-5-5-5-5-5-5-5-5-5-5-5-5-5-|
 E|---------------------------------|-3---3-3-3-3-3-3-3-3-3-3-3-3-3-3-|

Quanti ragazzi in questi anni si sono gettati via
[ Tab from: bttp://www.guitartabs.cc/tabs/l/los_fastidios/contiamo_su_di_voi_tab.btml ] 
[A5] [F5]  
 
 e|---------------------------------|---------------------------------|
 B|---------------------------------|---------------------------------|
 G|---------------------------------|---------------------------------|
 D|-7---7-7-7-7-7-7-7-7-7-7-7-7-7-7-|-3---3-3-3-3-3-3-3-3-3-3-3-3-3-3-|
 A|-7---7-7-7-7-7-7-7-7-7-7-7-7-7-7-|-3---3-3-3-3-3-3-3-3-3-3-3-3-3-3-|
 E|-5---5-5-5-5-5-5-5-5-5-5-5-5-5-5-|-1---1-1-1-1-1-1-1-1-1-1-1-1-1-1-|

Rovinati da falsi interessi e assurda utopia
[C5] [G5] [G#5]  
 
 e|---------------------------------|---------------------------------|
 B|---------------------------------|---------------------------------|
 G|-5---5-5-5-5-5-5-5-5-5-5-5-5-5-5-|---------------------------------|
 D|-5---5-5-5-5-5-5-5-5-5-5-5-5-5-5-|-5---5-5-5-5-5-5-5-5-5-5-5---6---|
 A|-3---3-3-3-3-3-3-3-3-3-3-3-3-3-3-|-5---5-5-5-5-5-5-5-5-5-5-5---6---|
 E|---------------------------------|-3---3-3-3-3-3-3-3-3-3-3-3---4---|

Oggi invece una moltitudine cresce attorno a noi
[A5] [F5] [G5]  
 
 e|---------------------------------|---------------------------------|
 B|---------------------------------|---------------------------------|
 G|---------------------------------|---------------------------------|
 D|-7---7-7-7-7-7-7-7-7-7-7-7-7-7-7-|-3---3-3-3-3-3-3-5---5-5-5-5-5-5-|
 A|-7---7-7-7-7-7-7-7-7-7-7-7-7-7-7-|-3---3-3-3-3-3-3-5---5-5-5-5-5-5-|
 E|-5---5-5-5-5-5-5-5-5-5-5-5-5-5-5-|-1---1-1-1-1-1-1-3---3-3-3-3-3-3-|

Sono i giovani ribelli che gridano la loro rabbia
CHORUS:
[C5] [D5] [F5] [G5]  
 
 e|---------------------------------|---------------------------------|
 B|---------------------------------|---------------------------------|
 G|-5---5-5-5-5-5-5-7---7-7-7-7-7-7-|---------------------------------| [x4]
 D|-5---5-5-5-5-5-5-7---7-7-7-7-7-7-|-3---3-3-3-3-3-3-5---5-5-5-5-5-5-|
 A|-3---3-3-3-3-3-3-5---5-5-5-5-5-5-|-3---3-3-3-3-3-3-5---5-5-5-5-5-5-|
 E|---------------------------------|-1---1-1-1-1-1-1-3---3-3-3-3-3-3-|

1. Noi contiamo su di voi nouve genera - zioni di rebelli
2. Noi contiamo su di voi per portare avanti la rivolta
INTERLUDE:
[C5] [G5]  
 
 e|---------------------------------|---------------------------------|
 B|---------------------------------|---------------------------------|
 G|-5---5-5-5-5-5-5-5-5-5-5-5-5-5-5-|---------------------------------|
 D|-5---5-5-5-5-5-5-5-5-5-5-5-5-5-5-|-5---5-5-5-5-5-5-5-5-5-5-5-5-5-5-|
 A|-3---3-3-3-3-3-3-3-3-3-3-3-3-3-3-|-5---5-5-5-5-5-5-5-5-5-5-5-5-5-5-|
 E|---------------------------------|-3---3-3-3-3-3-3-3-3-3-3-3-3-3-3-|

Ooooh ooooh \
> [x2]
[A5] [F5] [/]  
 
 e|---------------------------------|---------------------------------|
 B|---------------------------------|---------------------------------|
 G|---------------------------------|---------------------------------|
 D|-7---7-7-7-7-7-7-7-7-7-7-7-7-7-7-|-3---3-3-3-3-3-3-3-3-3-3-3-3-3-3-|
 A|-7---7-7-7-7-7-7-7-7-7-7-7-7-7-7-|-3---3-3-3-3-3-3-3-3-3-3-3-3-3-3-|
 E|-5---5-5-5-5-5-5-5-5-5-5-5-5-5-5-|-1---1-1-1-1-1-1-1-1-1-1-1-1-1-1-|

Ooooh ooooh
VERSE 2:
[C5] Di loro han fatto e detto [G5]ciò che hanno voluto
[A5] Per anni manovrati e [F5]strumentalizzati
[C5] Oggi invece la loro rabbia [G5]riuscirà a distruggere[(G#5)]
[A5] Ciò che i vili han costruito su [F5]quel che ma gli è ap[G5]partenuto
[Repeat CBORUS] (Noi contiamo su di voi ...)
[Repeat SOLO] 
[Repeat VERSE 1] (Quanti ragazzi in questi anni ...)
[Repeat CBORUS] (Noi contiamo su di voi ...)
ENDING:
[C5] [D5] [F5] [G5]  
 
 e|---------------------------------|---------------------------------|
 B|---------------------------------|---------------------------------|
 G|-5---5-5-5-5-5-5-7---7-7-7-7-7-7-|---------------------------------| [x2]
 D|-5---5-5-5-5-5-5-7---7-7-7-7-7-7-|-3---3-3-3-3-3-3-5---5-5-5-5-5-5-|
 A|-3---3-3-3-3-3-3-5---5-5-5-5-5-5-|-3---3-3-3-3-3-3-5---5-5-5-5-5-5-|
 E|---------------------------------|-1---1-1-1-1-1-1-3---3-3-3-3-3-3-|
 Ooooh - - ooooh - - ooooh - - la rivolta

[C5] [D5] [F5] [G5]  
 
 e|---------------------------------|---------------------------------|
 B|---------------------------------|---------------------------------|
 G|-5---5-5-5-5-5-5-7---7-7-7-7-7-7-|---------------------------------| [x2]
 D|-5---5-5-5-5-5-5-7---7-7-7-7-7-7-|-3---3-3-3-3-3-3-5---5-5-5-5-5-5-|
 A|-3---3-3-3-3-3-3-5---5-5-5-5-5-5-|-3---3-3-3-3-3-3-5---5-5-5-5-5-5-|
 E|---------------------------------|-1---1-1-1-1-1-1-3---3-3-3-3-3-3-|

1. Noi contiamo su di voi nouve genera - zioni di rebelli
2. Noi contiamo su di voi per portare avanti la rivolta
[C5] [D5] [F5] [G5]  
 
 e|---------------------------------|---------------------------------|
 B|---------------------------------|---------------------------------|
 G|-5---5-5-5-5-5-5-7---7-7-7-7-7-7-|---------------------------------| [x2]
 D|-5---5-5-5-5-5-5-7---7-7-7-7-7-7-|-3---3-3-3-3-3-3-5---5-5-5-5-5-5-|
 A|-3---3-3-3-3-3-3-5---5-5-5-5-5-5-|-3---3-3-3-3-3-3-5---5-5-5-5-5-5-|
 E|---------------------------------|-1---1-1-1-1-1-1-3---3-3-3-3-3-3-|

Oi oi oi oi oi oi oi oi oi oi oi oi la rivolta
C5 (hold)
 
 e|---------------------------------|
 B|---------------------------------|
 G|-5-------------------------------|
 D|-5-------------------------------|
 A|-3-------------------------------|
 E|---------------------------------|

Oi!
 
 -------------------------------------------------------------------------------


Important: The song above is NOT stored on the Chordie server. The original song is hosted at www.guitartabs.cc. Chordie works as a search engine and provides on-the-fly formatting. Chordie does not index songs against artists'/composers' will. To remove this song please click here.

Text color:
Chord color:
Chord grids: 
Font size:    
Page size: 

A5 C5 D5 F5 G#5 G5
Rate #1 of 3 versions

Login - add to songbook

SHARE PAGE  



You need to log in to post comments