Guitar Tabs, Chords and Lyrics
Server problems seems to be fixed. Chordie has been experiencing problems with songs disappearing. These issues now seems to be fixed, but still verifying the fix. If you find anything strange, please email admin@chordie.com.


Gente come noi  Los Fastidios

 
 -------------------------------------------------------------------------------

Band: Los Fastidios
Song: Gente Come Noi
Album: Guardo Avanti (KOB/Mad Butcher Records)
Transcribed by Andreas Karlsson (Mar 5, 2007)
 
 -------------------------------------------------------------------------------

h = hammer-on
\ = slide down
pm = palm mute
Standard tuning
156 BPM
 
 -------------------------------------------------------------------------------

INTRO (continue this pattern throughout the song):
C5(pm) G5(pm) C5(pm)
 
 e|---------------------------------|---------------------------------|
 B|---------------------------------|---------------------------------|
 G|---------------------------5---5-|---------------------------------| [x2]
 D|-5-5-5-5-5-5-5-5-5-5-5-5-5-5---5-|-----------------5-5-5-5-5-5-5-5-|
 A|-3-3-3-3-3-3-3-3-3-3-3-3-3-3---3-|-5-5-5-5-5-5-5-5-3-3-3-3-3-3-3-3-|
 E|---------------------------------|-3-3-3-3-3-3-3-3-----------------|

pm: ' ' ' ' ' ' ' ' ' ' ' ' ' ' ' ' ' ' ' ' ' ' ' ' ' ' ' ' '
[F5] [C5] [D5] [G5]  
 
 e|---------------------------------|---------------------------------|
 B|---------------------------------|---------------------------------|
 G|-----------------5---5-5-5-5-5---|-7---7-7-7-7-7-------------------|
 D|-3---3-3-3-3-3---5---5-5-5-5-5---|-7---7-7-7-7-7---5---5-5-5-5-----|
 A|-3---3-3-3-3-3---3---3-3-3-3-3---|-5---5-5-5-5-5---5---5-5-5-5-----|
 E|-1---1-1-1-1-1-------------------|-----------------3---3-3-3-3-0---|

F5 C5 D5 G5*
 
 e|---------------------------------|---------------------------------------|
 B|---------------------------------|---------------------------------------|
 G|-----------------5---5-5-5-5-5---|-7---7-7-7-7-7---12---12-12-12-12-12---|
 D|-3---3-3-3-3-3---5---5-5-5-5-5---|-7---7-7-7-7-7---12---12-12-12-12-12---|
 A|-3---3-3-3-3-3---3---3-3-3-3-3---|-5---5-5-5-5-5---10---10-10-10-10-10---|
 E|-1---1-1-1-1-1-------------------|---------------------------------------|

VERSE 1 (palm-muted):
[C5]We are skinheads we are punks - [G5]strani alieni di ques[C5]ta città
[C5]Minoranza estrema ideali veri - lo [G5]stresso orgoglio oggi [C5]come ieri
CHORUS 1:
La [F5]gente come [C5]noi - di [D5]giorno in piazza a sera in [G5]osteria
F5 C5 D5 G5*
La gente come noi - musica lotta ed allegria
BRIDGE (palm-muted):
[C5] [G5] [C5]  
[C5] [G5] [C5]  
VERSE 2 (palm-muted):
[C5]We are skinheads we are punks - [G5]strani alieni di ques[C5]ta città
Nes[C5]suna bandiera nessun padrone - dist[G5]ruggerà la [C5]nostra unione
CHORUS 2:
U[F5]nited and [C5]strong - [D5]hey remember where [G5]you were born
F5 C5 D5 G5*
United and strong - come on together fight and fun
SOLO:
C5(pm) G5(pm) C5(pm)
 
 e|---------------------------------|---------------------------------|
 B|-0---0-0-0-0-0-0-----0-0-0-0-0---|-0---------5b--------------------|
 G|-0---3-3-2-3-2-0-----3-3-2-3-2---|-0-------5-------5-----------5\--|
 D|---------------------------------|-0-------------------------------|
 A|---------------------------------|---------------------------------|
 E|---------------------------------|---------------------------------|

pm: ' ' ' ' ' ' ' ' ' '
C5(pm) G5(pm) C5(pm)
 
 e|---------------------------------|---------------------------------|
 B|-0---0-0-0-0-0-0-----0-0-0-0-0---|-----------5b--------------------|
 G|-0---3-3-2-3-2-0-----3-3-2-3-2---|-0-------5-------5------------5\-|
 D|---------------------------------|---------------------------------|
 A|---------------------------------|---------------------------------|
 E|---------------------------------|---------------------------------|

pm: ' ' ' ' ' ' ' ' ' '
[F5] [C5] [D5] [G5]  
 
 e|---------------------------------|---------------------------------|
 B|-------------5---5---------------|-5-----------5-------------------|
 G|-2-------------------5-----------|---7---5---7---5h7------------7\-|
 D|---------------------------------|---------------------------------|
 A|---------------------------------|---------------------------------|
 E|---------------------------------|---------------------------------|

F5 C5 D5 G5*
 
 e|---------------------------------|---------------------------------|
 B|---------------------------------|-------------------------3-------|
 G|-2-----------5---5---------------|---------2---5---4---5-------4---|
 D|---------------------5-5---------|-3---5---------------------------|
 A|---------------------------------|---------------------------------|
 E|---------------------------------|---------------------------------|

C5(pm)
 
 e|-----------------
 B|-----------------

G|-5~~ hold ~~~~~~~
 
 D|-----------------
 A|-----------------
 E|-----------------

(Repeat VERSE 1) (We are skinheads ...)
(Repeat CHORUS 1) (La gente come noi ...)
(Repeat CHORUS 2) (United and strong ...)
OUTRO:
(2nd guitar plays each chord once every chord change)
C5(pm) G5(pm) C5(pm)
 
 e|---------------------------------|---------------------------------|
 B|---------------------------------|---------------------------------|
 G|---------------------------5---5-|---------------------------------|
 D|-5-5-5-5-5-5-5-5-5-5-5-5-5-5---5-|-----------------5-5-5-5-5-5-5-5-|
 A|-3-3-3-3-3-3-3-3-3-3-3-3-3-3---3-|-5-5-5-5-5-5-5-5-3-3-3-3-3-3-3-3-|
 E|---------------------------------|-3-3-3-3-3-3-3-3-----------------|

pm: ' ' ' ' ' ' ' ' ' ' ' ' ' ' ' ' ' ' ' ' ' ' ' ' ' ' ' ' '
C5(pm) G5(pm) E5 D5 C5
 
 e|---------------------------------|---------------------------------|
 B|---------------------------------|---------------------------------|
 G|---------------------------5---5-|-----------------9-7---5---------|
 D|-5-5-5-5-5-5-5-5-5-5-5-5-5-5---5-|-----------------9-7---5---------|
 A|-3-3-3-3-3-3-3-3-3-3-3-3-3-3---3-|-5-5-5-5-5-5-5-5-7-5---3---------|
 E|---------------------------------|-3-3-3-3-3-3-3-3-----------------|

pm: ' ' ' ' ' ' ' ' ' ' ' ' ' ' ' ' ' ' ' ' '
We are skinheads - - - we are punks
 
 -------------------------------------------------------------------------------


Important: The song above is NOT stored on the Chordie server. The original song is hosted at www.guitartabs.cc. Chordie works as a search engine and provides on-the-fly formatting. Chordie does not index songs against artists'/composers' will. To remove this song please click here.

Text color:
Chord color:
Chord grids: 
Font size:    
Page size: 

C5 D5 F5 G5
Rate #1 of 2 versions

Login - add to songbook

SHARE PAGE  




You need to log in to post comments