Guitar Tabs, Chords and Lyrics
Major upgrade!! After one year development the new version of Chordie is now online! Please give feedback.


La Bamba  Los Lobos

These are the chords played throughout the song
Intro:
 
 E |----------------------------||----------------------------|
 B |----------------------------||----------------------------|
 G |----------------0-----2--0--||----------------------------|
 D |-------------2----3---------||-------0---3--3--2---0------|
 A |----0--2--3-----------------||----2-----------------------|
 E |-3--------------------------||-3--------------------------|
 E |----------------------------|
 B |----------------------------|
 G |----------0-----2--0--------|
 D |-------2-----3--------------|
 A |---3------------------------|
 E |----------------------------| 

Para bailar la [C]bamba[F], [G] Para bailar la [C]bamba,
se [F]nece[G]sita un poca de [C]gracia[F], [G] una poca de [C]gracia [F]para mi para
[G]ti y ariba y ari[C]ba,[F] [G] ay ariba [C]ariba por [F]ti se [G]re
por ti se [C]re, por [F]ti se [G]re
yo no soy [C]marinero[F], [G] yo no soy mari[C]nero
soy [F]capi[G]tan, soy capi[C]tan, soy [F]capi[G]tan
[C]bam[F]ba, [G]bamba
[C]bam[F]ba, [G]bamba
[C]bam[F]ba, [G]bamba
[C] [F] [G]  
[bamba]  
Para bailar la [C]bamba,[F] [G] Para bailar la [C]bamba,
se [F]nece[G]sita un poca de [C]gracia[F], [G] una poca de [C]gracia [F]para mi para
[G]ti y ariba y ar[C]iba [F] [G]
Solo:
(p) pull off
(h) hammer on
/ slide up
\ slide down
(tr) tremolo picking
 
 E |----------------------------|-----------------------------|
 B |----------------------------|----------0(h)1--0------0----|
 G |-------(tr)-0---------------|-0--2-4-------------2-----2--|
 D |----------------------------|-----------------------------|
 A |----------------------------|-----------------------------|
 E |----------------------------|-----------------------------|
 E |-----------------------------|-----------------------------|
 B |-----------------------------|-----------------------------|
 G |-----2--0-----0--------0-----|-----------------------------|
 D |-----------3-----2--3------2-|---3--0--2----0--------------|
 A |-----------------------------|------------3---2--3--0------|
 E |-----------------------------|-----------------------------|
 E |----------------------------|-----------------------0--1--|
 B |----------------------------|--------------0--1--3--------|
 G |----------------------------|--------0--2-----------------|
 D |-------------------------0--|--2--3-----------------------|
 A |-2-----0--------0--2--3-----|-----------------------------|
 E |----3-----1--3--------------|-----------------------------| 

(tremolo for bar and a half)
 
 E |-----0--1--(tr)3------------|-----------------------------|
 B |--3-------------------------|-----------------------------|
 G |----------------------------|-----------------------------|
 D |----------------------------|-----------------------------|
 A |----------------------------|-----------------------------|
 E |----------------------------|-----------------------------| 

(as soon as you come out of the
tremolo from previous bar, slide
up to the 12 fret then back
without picking)
 
 E |--------3/12\3--------------|-5--3(h)5(p)3\1-1(h)3(p)1(p)0-|
 B |----------------------------|------------------------------|
 G |----------------------------|------------------------------|
 D |----------------------------|------------------------------|
 A |----------------------------|------------------------------|
 E |----------------------------|------------------------------|
 E |-1-----0--------0--------0---|----------------------------|
 B |----3-----1--3-----1--3----1-|-3--1(h)3(p)1-----0---------|
 G |-----------------------------|------------2-----0---------|
 D |-----------------------------|----------------------------|
 A |-----------------------------|----------------------------|
 E |-----------------------------|----------------------------|
 E |----------------------------|----------------------------------|
 B |----------------------------|----------------------------------|
 G |--2(p)0-----0--------0------|--------0-------0-0-0-0-0-5-0-0-0-|
 D |-------------3-----2--3-----|---2--3-----2/3-------------------|
 A |----------------------------|----------3-----------------------|
 E |----------------------------|----------------------------------|
 E |----------------------------|-----------------------------------------|
 B |----------------------------|-----------------------------------------|
 G |-7p0-7p0-0-0-4p0-0-0-7p0-0-0-5-0-0-0-9-0-0-0-7-0-0-0-9-10-|-10/(tr)12-|
 D |----------------------------|-----------------------------------------|
 A |----------------------------|-----------------------------------------|
 E |----------------------------|-----------------------------------------| 

( Tab from: http://www.guitartabs.cc/tabs/l/los_lobos/la_bamba_tab_ver_12.html )
 
 E |----------------------------||----------------------------|
 B |----------------------------||----------------------------|
 G |----------------0-----2--0--||----------------------------|
 D |-------------2----3---------||-------0---3--3--2---0------|
 A |----0--2--3-----------------||----2-----------------------|
 E |-3--------------------------||-3--------------------------|
 E |----------------------------|
 B |----------------------------|
 G |----------0-----2--0--------|
 D |-------2-----3--------------|
 A |---3------------------------|
 E |----------------------------| 

Para bailar la [C]bamba,[F] [G] Para bailar la [C]bamba,
se [F]nece[G]sita un poca de [C]gracia[F], [G] una poca de [C]gracia [F]para mi para
[G]tiy ariba y a[C]riba,[F] [G] ay ariba ar[C]iba por [F]ti se [G]re
por ti se [C]re, por [F]ti se [G]re
[C]bam[F]ba[G], bamba
[C]bam[F]ba[G], bamba
[C]bam[F]ba[G], bamba
[C]bam[F]ba[G], bamba
(Outro)
(Acoustic)
(finger picking)
 
 e|-0-----0-1----1-3--------3-1-0--0-----0-1----1-3-------3-1-0---------------|
 B|-----1-------1------0-3---------3-----1------1-------0-3-------3-----------|
 G|---0-------2------0------------------0------2-------0----------------------|
 D|---------------------------------------------------------------------------|
 A|---------------------------------------------------------------------------|
 E|---------------------------------------------------------------------------|
 e|-0----0-1----1-3------3-1-0---0----0-1----1-3----0--3-3--3-5-5--3-3--33--1-|
 B|----1-------1------0-3-------3-----1------1-------1------------------------|
 G|--0-------2------0----------------0------2-------0-------------------------|
 D|---------------------------------------------------------------------------|
 A|---------------------------------------------------------------------------|
 E|---------------------------------------------------------------------------|
 e|---0-0--0------------1--1-0--------------------------0----------------------------------------0|
 B|----------1------0-3--3-----1--------3--3--3--3--1--3--0-3-1-----3--3----3----3--0-3-1---------|
 G|------------2--0---------------0-2--0--4--4--4---------5-------2-0--4--2-4--5----5----------2-0|
 D|---------------------------------3-------------------------------------------------------------|
 A|-----------------------------------------------------------------------------------------------|
 E|-----------------------------------------------------------------------------------------------|
 e|-1-1-1--1--1--1---0-0-0--0--0---1-1-1--1---1--0-0-0--0-0-------0-------------------------------|
 B|-------0--0---------------1-------------------------------------------1------------------------|
 G|--------------2---4-----------2--0--------4--2---4-------5--2--0-0-----------------------------|
 D|-----------------------------------------------------------------------------------------------|
 A|-----------------------------------------------------------------------------------------------|
 E|-----------------------------------------------------------------------------------------------|
 e|---3--5-5-5--3--3-3-5-7-8-8--8-8-10-10--10-10--7-7--10-10--8-8--10-10------|
 B|---------------------------------------------------------------------------|
 G|-4-------------------------------------------------------------------------|
 D|---------------------------------------------------------------------------|
 A|---------------------------------------------------------------------------|
 E|---------------------------------------------------------------------------|
 e|--10---7-7-10-10-7--10-10-10-10-10-8-8-8-8-8-10-10-10-10-10-7-7-7-7-7--10-10-10-10-10-|
 B|---------------------------------------------------------------------------------------|
 G|-0--0---------------0------------------------------------------------------------------|
 D|---------------------------------------------------------------------------------------|
 A|---------------------------------------------------------------------------------------|
 E|---------------------------------------------------------------------------------------|
 e|--8-8-8-8-8-10-10-10-10-10-7-7-7-7-7--10-10-10-10--8-8--8-7-5---3--3-3--1--0-0-0-|
 B|-----------------------------------------------------------------------------0---|
 G|---------------------------------------------------------------------------------|
 D|---------------------------------------------------------------------------------|
 A|---------------------------------------------------------------------------------|
 E|---------------------------------------------------------------------------------|
 e|-------1--1--1--8-8-8-7-5---3--3-3-1--0-0--0------1--1--1------------------|
 B|-1------0-----------------------------------------1------0-----------------|
 G|---2-0-----2----------------0----------------------2-0-----2---------------|
 D|---------------------------------------------------------------------------|
 A|---------------------------------------------------------------------------|
 E|---------------------------------------------------------------------------|
 e|-----0--0--0---1--0--0-----------------------------------------------------|
 B|------1----------0---------------------------------------------------------|
 G|--0------2---0------2---0-0----0-------------------------------------------|
 D|------------------------------2-3--3-2-0--2-0------------------------------|
 A|---------------------------------------------------------------------------|
 E|---------------------------------------------------------------------------|


Important: The song above is NOT stored on the Chordie server. The original song is hosted at www.guitartabs.cc. Chordie works as a search engine and provides on-the-fly formatting. Chordie does not index songs against artists'/composers' will. To remove this song please click here.

Text color:
Chord color:
Chord grids: 
Font size:    
Page size: 

C F G
Rate #1 of 9 versions

Jango Player

Login - add to songbook

SHARE PAGE  




You need to log in to post comments