Guitar Tabs, Chords and Lyrics
Server problems seems to be fixed. Chordie has been experiencing problems with songs disappearing. These issues now seems to be fixed, but still verifying the fix. If you find anything strange, please email admin@chordie.com.


Staying With Me  Los Lonely Boys

Chords
[B] [C#m] [E] [F#]  
 
 --7-- --9-- --7-- --9--|
 --7-- --9-- --9-- -11--|
 --8-- --9-- --9-- -11--|
 --9-- -10-- --9-- -11--|
 --9-- -10-- --7-- --9--|
 --7-- --9-- --7-- --9--|

Intro
[B-C#m]  
 
 -------------------------------------------|
 ----------------12-14-14b16---12-12--14----|
 ---------11-13-----------------------------|
 --11/13------------------------------------|
 -------------------------------------------|
 -------------------------------------------|
 -----------------------11--12--14-14b16--14--11h12p11--------------------|
 ---------12-14-14b16-----------------------------------14--12-12h14p12---|
 --11/13------------------------------------------------------------------|
 -------------------------------------------------------------------------|
 -------------------------------------------------------------------------|
 -------------------------------------------------------------------------|

Verse
[B]If I told you I lo[C#m]ved you
[B]would you walk aw[C#m]ay
[B]I'm not trying to f[C#m]ool you
[B]theres no playing g[C#m]ames
[E]your tired of being al[B]one though I feel the sa[F#]me ooooh
[E]maybe falling in l[B]ove will take away your pa[F#]in
Chorus
So I have to [B]say (I have to say)
that I r[C#m]eally love you (I really love you)
dont be a[B]fraid (dont be afraid)
I just wanna [C#m]know (just wanna know)
if your staying with [B]me[C#m] [B] [C#m]
repeats throughout the whole song
Verse 2
Oh I can take you away
to places out of this world
all I need is the time of day
to make your dreams for real
take a chance on love I'm gonna do the same oooh
we're two hearts of a kind we're gonna have it made
Chorus
So I have to say (I have to say)
that I really love you (I really love you)
dont be afraid (dont be afraid)
I just wanna know (just wanna know)
if your staying with me
So I have to say (I have to say)
that I really love you (I really love you)
dont be afraid (dont be afraid)
I just wanna know (just wanna know)
if your staying with me
Woah dont go running away like you have before ooooh
all your wildest dreams are just beyond the door
Chorus
So I have to say (I have to say)
that I really love you (I really love you)
dont be afraid (dont be afraid)
I just wanna know (just wanna know)
if your staying with me
So I have to say (I have to say)
that I really love you (I really love you)
dont be afraid (dont be afraid)
I just wanna know (just wanna know)
if your staying with me
are you staying with me
stay with me baby
stay with me babe
stay with me baby
stay with me baby

Important: The song above is NOT stored on the Chordie server. The original song is hosted at www.guitartabs.cc. Chordie works as a search engine and provides on-the-fly formatting. Chordie does not index songs against artists'/composers' will. To remove this song please click here.

Text color:
Chord color:
Chord grids: 
Font size:    
Page size: 

B C#m E F#
Rate #0 of 2 versions

Login - add to songbook

SHARE PAGE  




You need to log in to post comments