Guitar Tabs, Chords and Lyrics
Server problems seems to be fixed. Chordie has been experiencing problems with songs disappearing. These issues now seems to be fixed, but still verifying the fix. If you find anything strange, please email admin@chordie.com.


The Kid Is Hot Tonight  Loverboy

THE KID IS HOT TONIGHT (Bassline)
Transcribed by Gary Ramsey
Gtr I (E A D G) - 'Staff'
Q=144
[4/4] Gtr I
[B] [E] [E] [E] [E] [E] [E] [E] [E] [E] [E] [E] [E] [E] [E] [E] [E] [E] [E] [E] [E] [E] [E] [E] [E] [E] [E] [E] [E]  
 
 |--------------|-----------------|-----------------|------------------|
 |--------------|-----------------|-----------------|------------------|
 |--------------|-----------------|-----------------|------------------|
 |--------0-3-4-|-5-5-5-5-5-5-5-5-|-5-5-5-5-5-0-3-4-|-5-5-5-5-5-5-5-5--|

[E] [E] [E] [E] [E] [E] [E] [E] [E] [E] [E] [E] [E] [E] [E] [E] [E] [E] [E] [E] [E] [E] [E] [E] [E] [E] [E] [E] [E] [E] [E] [E]  
 
 |-----------------|-----------------|-----------------|-----------------|
 |-----------------|-----------------|-----------------|-----------------|
 |-----------------|-----------------|-----------------|-----------------|
 |-5-5-5-5-5-0-3-4-|-5-5-5-5-5-5-5-5-|-5-5-5-5-5-0-3-4-|-5-5-5-5-5-5-5-5-|

[E] [E] [E] [E] [E] [E] [E] [E] [E] [E] [E] [E] [E] [E] [E] [E] [E] [E] [E] [E] [E] [E] [E] [E] [E] [E] [E] [E] [E] [E] [E] [E]  
 
 |-----------------|-----------------|-----------------|-----------------|
 |-----------------|-----------------|-----------------|-----------------|
 |-----------------|-----------------|-----------------|-5-5-5-5-4-4-4-4-|
 |-5-5-5-5-5-0-3-4-|-5-5-5-5-5-5-5-5-|-5-5-5-5-5-5-5-5-|-----------------|

[E] [E] [E] [E] [E] [E] [E] [E] [E] [E] [E] [E] [E] [E] [E] [E] [E] [E] [E] [E] [E] [E] [E] [E] [E] [E] [E] [E] [E] [E] [E] [E]  
 
 |-----------------|-----------------|-----------------|-----------------|
 |-----------------|-----------------|-----------------|-----------------|
 |-2-2-2-2-0-0-0-0-|-----------------|-----------------|-----------------|
 |-----------------|-0-0-0-0-0-0-0-0-|-0-0-0-0-0-0-0-0-|-2-2-2-2-2-2-2-2-|

[E] [E] [E] [E] [E] [E] [E] [E] [E] [E] [E] [E] [E] [E] [E] [E] [E] [E] [E] [E] [E] [E] [E] [E] [E] [E] [E] [E] [E] [E] [E] [E]  
 
 |-----------------|-----------------|-----------------|-----------------|
 |-----------------|-----------------|-----------------|-----------------|
 |-----------------|-----------------|-----------0-2-4-|-5-5-5-5-5-5-5---|
 |-2-2-2-2-2-2-2-2-|-2-2-2-2-2-2-2-2-|-2-2-2-2-2-------|---------------5-|

[E] [E] [E] [E] [E] [E] [E] [E] [E] [E] [E] [E] [E] [E] [E] [E] [E] [E] [E] [E] [E] [E] [E] [E] [E] [E] [E] [E] [E] [E] [E] [E]  
 
 |-----------------|-----------------|-----------------|-----------------|
 |-----------------|-----------------|-----------------|-----------------|
 |-5-5-5-5-5-5-7-5-|-4-4-4-4-4-4-4-4-|-4-4-4-4-4-4-4---|-----------------|
 |-----------------|-----------------|---------------5-|-2-2-2-2-2-2-2-2-|

[E] [E] [E] [E] [E] [E] [E] [E] [E] [E] [E] [E] [E] [E] [E] [E] [E] [E] [E] [E] [E] [E] [E] [E] [E] [E] [E] [E] [E] [E] [E] [E]  
 
 |-----------------|-----------------|-----------------|-----------------|
 |-----------------|-----------------|-----------------|-----------------|
 |---2-2-2-4-4-4-4-|-----------------|-----------0-2-4-|-5-5-5-5-5-5-5---|
 |-2---------------|-2-2-2-2-2-2-2-2-|-2-2-2-2-2-------|---------------5-|

[E] [E] [E] [E] [E] [E] [E] [E] [E] [E] [E] [E] [E] [E] [E] [E] [E] [E] [E] [E] [E] [E] [E] [E] [E] [E] [E] [E] [E] [E] [E] [E]  
 
 |-----------------|-----------------|-----------------|-----------------|
 |-----------------|-----------------|-----------------|-----------------|
 |-5-5-5-5-5-5-7-5-|-4-4-4-4-4-4-4-4-|-4-4-4-4-4-4-4---|-----------------|
 |-----------------|-----------------|---------------5-|-2-2-2-2-2-2-2-2-|

[E] [E] [E] [E] [E] [E] [E] [E] [E] [E] [E] [E] [E] [E] [E] [E] [E] [E] [E] [E] [E] [E] [E] [E] [E] [E] [E] [E] [E] [E] [E] [E]  
 
 |-----------------|-----------------|-----------------|-----------------|
 |-----------------|-----------------|-----------------|-0-0-0-0-0-0-0-0-|
 |-----------------|-0-0-0-0-0-0-0-0-|-0-0-0-0-0-0-0-0-|-----------------|
 |-2-2-2-2-2-2-2-2-|-----------------|-----------------|-----------------|

E E E E E E E E E E E E E E E E E E E E E E S S E E E E E E E E E
 
 |-----------------|-----------------|-------------------|------------------|
 |-0-0-0-0-0-0-0-0-|-2-2-2-2-2-2-2-2-|-2-2-2-2-2-2-------|------------------|
 |-----------------|-----------------|-------------2---0-|------------------|
 |-----------------|-----------------|-------------------|-2-2-2-2-2-2-2-2--|

[E] [E] [E] [E] [E] [E] [E] [E] [E] [E] [E] [E] [E] [E] [E] [E] [E] [E] [E] [E] [E] [E] [E] [E] [E] [E] [E] [E] [E] [E] [E] [E]  
 
 |-----------------|-----------------|-----------------|-----------------|
 |-----------------|-----------------|-----------------|-----------------|
 |-----------------|-----------------|-----------------|-5-5-5-5-5-5-5-5-|
 |-2-2-2-2-2-1-2-4-|-5-5-5-5-5-5-5-5-|-5-5-5-5-5-5-5-5-|-----------------|

E E E E E E E E E E E E E E E E E E E E E E S S E E E E E E E E E
 
 |-----------------|-----------------|-------------------|------------------|
 |-----------------|-----------------|-------------------|-4-4-4-4-4-4-4-4--|
 |-5-5-5-5-5-5-5-5-|-7-7-7-7-7-7-7-7-|-7-7-7-7-7-7-------|------------------|
 |-----------------|-----------------|-------------7---5-|------------------|

E E E E E E E E E E Q E E E E E E E E E E E E E E E E E E E E
 
 |-----------------|----------------|-----------------|-----------------|
 |-4-4-4-4-4-4-4-4-|-4-4------------|-----------------|-----------------|
 |-----------------|-----4----------|-----------------|-2-2-2-2-2-2-2-2-|
 |-----------------|--------2-2-2-2-|-2-2-2-2-2-2-2-2-|-----------------|

[E] [E] [E] [E] [E] [E] [E] [E] [E] [E] [E] [E] [E] [E] [E] [E] [E] [E] [E] [E] [E] [E] [E] [E] [E] [E] [E] [E] [E] [E] [E] [E]  
 
 |-----------------|-----------------|-----------------|-----------------|
 |-----------------|---------------6-|-----------------|-----------------|
 |-2-2-2-2-2-2-2-2-|-4-4-4-4-4-4-4---|-4-4-4-4-4-4-4-4-|-6-6-6-6-6-6-6-6-|
 |-----------------|-----------------|-----------------|-----------------|

E E E E E E E E E E Q E E E E E E E E E E E E E E E E E E E E
 
 |-----------------|----------------|-----------------|-----------------|
 |-----------------|----------------|-----------------|-----------------|
 |-7-7-7-7-7-7-7-7-|-9-9------------|-----------------|-2-2-2-2-2-2-2-2-|
 |-----------------|-----9--2-2-2-2-|-2-2-2-2-2-2-2-2-|-----------------|

[E] [E] [E] [E] [E] [E] [E] [E] [E] [E] [E] [E] [E] [E] [E] [E] [E] [E] [E] [E] [E] [E] [E] [E] [E] [E] [E] [E] [E] [E] [E] [E]  
 
 |-----------------|-----------------|-----------------|-----------------|
 |-----------------|---------------6-|-----------------|-----------------|
 |-2-2-2-2-2-2-2-2-|-4-4-4-4-4-4-4---|-4-4-4-4-4-4-4-4-|-6-6-6-6-6-6-6-6-|
 |-----------------|-----------------|-----------------|-----------------|

[E] [E] [E] [E] [E] [E] [E] [E] [E] [E] [E] [E] [E] [E] [E] [E] [E] [E] [E] [E] [E] [E] [E] [E] [E] [E] [E] [E] [E] [E] [E] [E]  
 
 |-----------------|-----------------|-----------------|-----------------|
 |-----------------|-----------------|-----------------|-----------------|
 |-7-7-7-7-7-7-7-7-|-----------------|-----------------|-5-5-5-5-4-4-4-4-|
 |-----------------|-5-5-5-5-5-5-5-5-|-5-5-5-5-5-5-5-5-|-----------------|

[E] [E] [E] [E] [E] [E] [E] [E] [E] [E] [E] [E] [E] [E] [E] [E] [E] [E] [E] [E] [E] [E] [E] [E] [E] [E] [E] [E] [E] [E] [E] [E]  
 
 |-----------------|-----------------|-----------------|-----------------|
 |-----------------|-----------------|-----------------|-----------------|
 |-2-2-2-2-0-0-0-0-|-----------------|-----------------|-----------------|
 |-----------------|-0-0-0-0-0-0-0-0-|-0-0-0-0-0-0-0-0-|-2-2-2-2-2-2-2-2-|

E E E E E E E E E S S E S S E S S E S S E S S E S S E E E E
 
 |-----------------|-------------------------|---------------------|
 |-----------------|-------------------------|---------------------|
 |-----------------|-------------------------|---------------2-----|
 |-2-2-2-2-2-2-2-2-|-2-2-2-2-2-2-2-2-2-2-2-2-|-2-2-2-2-2-2-2-----2-|

E S S E S S E S S E S S E S S E S S E E E E E S S E S S E S S E S S
 
 |-------------------------|---------------------|--------------------------|
 |-------------------------|---------------------|--------------------------|
 |-------------------------|---------------2---4-|---4-4-4-4-4-4-4-4-4-4-4--|
 |---2-2-2-2-2-2-2-2-2-2-2-|-2-2-2-2-2-2-2-------|--------------------------|

E S S E S S E E E E E S S E S S E S S E S S E E E E E E E E
 
 |---------------------|-------------------------|-----------------|
 |---------------------|-------------------------|-----------------|
 |-3-4-4-4-4-4-4-2-----|-------------------------|---2-2-2-4-4-4-4-|
 |-------------------2-|---2-2-2-2-2-2-2-2-2-2-2-|-2---------------|

E S S E S S E S S E S S E S S E S S E E E E E S S E S S E S S E S S
 
 |-------------------------|---------------------|--------------------------|
 |-------------------------|---------------------|--------------------------|
 |-------------------------|---------------2-----|--------------------------|
 |-2-2-2-2-2-2-2-2-2-2-2-2-|-2-2-2-2-2-2-2-----2-|---2-2-2-2-2-2-2-2-2-2-2--|

E S S E S S E E E E E S S E S S E S S E S S E S S E S S E E E E
 
 |---------------------|-------------------------|----------------------|
 |---------------------|-------------------------|----------------------|
 |---------------2---4-|---4-4-4-4-4-4-4-4-4-4-4-|-3-4-4-4-4-4-4-2------|
 |-2-2-2-2-2-2-2-------|-------------------------|-------------------2--|

E S S E S S E S S E S S S S S S S S S S S S S S E E E E E E E E E E
 
 |-------------------------|-----------------------------|------------------|
 |-------------------------|-----------------------------|------------------|
 |-------------------------|---------------------------0-|-0-0-0-0-0-0-0-0--|
 |---2-2-2-2-2-2-2-2-2-2-2-|-2---2---2---2---2---2---2---|------------------|

[E] [E] [E] [E] [E] [E] [E] [E] [E] [E] [E] [E] [E] [E] [E] [E] [E] [E] [E] [E] [E] [E] [E] [E] [E] [E] [E] [E] [E] [E] [E] [E]  
 
 |-----------------|-----------------|-----------------|-----------------|
 |-----------------|-----------------|-----------------|-----------------|
 |-0-0-0-0-0-0-2-4-|-5-5-5-5-5-5-5-5-|-5-5-5-5-5-5-4-5-|-7-7-7-7-7-7-7-7-|
 |-----------------|-----------------|-----------------|-----------------|

[E] [E] [E] [E] [E] [E] [E] [E] [E] [E] [E] [E] [E] [E] [E] [E] [E] [E] [E] [E] [E] [E] [E] [E] [E] [E] [E] [E] [E] [E] [E] [E]  
 
 |-----------------|-----------------|-----------------|-----------------|
 |-----------------|-----------------|-----------------|-----------------|
 |-7-7-7-7-7-7-7-7-|-9-9-9-9-9-9-9-9-|-9-9-9-9-9-------|-----------------|
 |-----------------|-----------------|-----------0-2-4-|-5-5-5-5-5-5-5-5-|

[E] [E] [E] [E] [E] [E] [E] [E] [E] [E] [E] [E] [E] [E] [E] [E]  
 
 |-----------------|-------------------------|
 |-----------------|-------------------------|
 |-----------------|-------------------------|
 |-5-5-5-5-5-5-7-9-|-10-10-10-10-10-10-10-10-|

[E] [E] [E] [E] [E] [E] [E] [E] [E] [E] [E] [E] [E] [E] [E] [E]  
 
 |------------------------|-------------------------|
 |------------------------|-------------------------|
 |------------------------|-------------------------|
 |-10-10-10-10-10-10-9-10-|-12-12-12-12-12-12-12-12-|

E E E E E E E E E E E E E E Q
 
 |-------------------------|----------------------|
 |-------------------------|----------------------|
 |-------------------------|-------------------2--|
 |-12-12-12-12-12-12-12-12-|-14-14-14-14-14-14----|

[E] [E] [E] [E] [E] [E] [E] [E] [E] [E] [E] [E] [E] [E] [E] [E]  
 
 |-----------------|-----------------|
 |-----------------|-----------------|
 |-----------------|-----------------|
 |-2-2-2-2-2-2-2-2-|-2-2-2-2-2-2-2-2-|

[E] [E] [E] [E] [E] [E] [E] [E] [E] [E] [E] [E] [E] [E] [E] [E] [E] [E] [E] [E] [E] [E] [E] [E] [E] [E] [E] [E] [E] [E] [E] [E]  
 
 |-----------------|-----------------|-----------------|------------------|
 |-----------------|-----------------|-----------------|------------------|
 |-----------------|-----------------|-----------------|---------------11-|
 |-2-2-2-2-2-2-4-6-|-7-7-7-7-7-7-7-7-|-7-7-7-7-7-7-7-7-|-9-9-9-9-9-9-9----|

[E] [E] [E] [E] [E] [E] [E] [E] [E] [E] [E] [E] [E] [E] [E] [E]  
 
 |-----------------|-------------------------|
 |-----------------|-------------------------|
 |-----------------|-------------------------|
 |-9-9-9-9-9-9-9-9-|-11-11-11-11-11-11-11-11-|

E E E E E E E E E E Q E E E E
 
 |-------------------------|------------------|
 |-------------------------|------------------|
 |-------------------------|-------4----------|
 |-12-12-12-12-12-12-12-12-|-14-14----2-2-2-2-|

[E] [E] [E] [E] [E] [E] [E] [E] [E] [E] [E] [E] [E] [E] [E] [E] [E] [E] [E] [E] [E] [E] [E] [E] [E] [E] [E] [E] [E] [E] [E] [E]  
 
 |-----------------|-----------------|-----------------|-----------------|
 |-----------------|-----------------|---------------6-|---------------6-|
 |-----------------|-2-2-2-2-2-2-2-2-|-4-4-4-4-4-4-4---|-4-4-4-4-4-4-4---|
 |-2-2-2-2-2-2-2-2-|-----------------|-----------------|-----------------|

[E] [E] [E] [E] [E] [E] [E] [E] [E] [E] [E] [E] [E] [E] [E] [E] [E] [E] [E] [E] [E] [E] [E] [E] [E] [E] [E] [E] [E] [E] [E] [E]  
 
 |-----------------|-----------------|-----------------|-----------------|
 |-----------------|-----------------|-----------------|-----------------|
 |-6-6-6-6-6-6-6-6-|-7-7-7-7-7-7-7-7-|-----------------|-----------------|
 |-----------------|-----------------|-5-5-5-5-5-5-5-5-|-5-5-5-5-5-5-5-5-|

[E] [E] [E] [E] [E] [E] [E] [E] [E] [E] [E] [E] [E] [E] [E] [E] [E] [E] [E] [E] [E] [E] [E] [E] [E] [E] [E] [E] [E] [E] [E] [E]  
 
 |-----------------|-----------------|-----------------|-----------------|
 |-----------------|-----------------|-----------------|-----------------|
 |-5-5-5-5-4-4-4-4-|-2-2-2-2-0-0-0-0-|-----------------|-----------------|
 |-----------------|-----------------|-0-0-0-0-0-0-0-0-|-0-0-0-0-0-0-0-0-|

[E] [E] [E] [E] [E] [E] [E] [E] [E] [E] [E] [E] [E] [E] [E] [E] [E] [E] [E] [E] [E] [E] [E] [E] [E] [E] [E] [E] [E] [E] [E] [E]  
 
 |-----------------|-----------------|-----------------|-----------------|
 |-4-4-3-3-2-2-1-1-|-0-0-------------|-----------------|-----------------|
 |-----------------|-----4-4-3-3-2-2-|-----------------|-----------------|
 |-----------------|-----------------|-2-2-2-2-2-2-2-2-|-2-2-2-2-2-2-2-2-|

[E] [E] [E] [E] [E] [E] [E] [E] [E] [E] [E] [E] [E] [E] [E] [E] [E] [E] [E] [E] [E] [E] [E] [E] [E] [E] [E] [E] [E] [E] [E] [E]  
 
 |-----------------|-----------------|-----------------|-----------------|
 |-----------------|-----------------|-----------------|-----------------|
 |-2-2-2-2-2-2-2-2-|-2-2-2-2-2-2-2-2-|-4-4-4-4-4-4-4-4-|-4-4-4-4-4-4-4-4-|
 |-----------------|-----------------|-----------------|-----------------|

E E E E E E E E E E E E E E E E E E Q E E E E E E E E E E E E
 
 |-----------------|-----------------|----------------|-----------------|
 |-----------------|-----------------|----------------|-----------------|
 |-6-6-6-6-6-6-6-6-|-7-7-7-7-7-7-7-7-|-9-9------------|-----------------|
 |-----------------|-----------------|-----9--2-2-2-2-|-2-2-2-2-2-2-2-2-|

[E] [E] [E] [E] [E] [E] [E] [E] [E] [E] [E] [E] [E] [E] [E] [E] [E] [E] [E] [E] [E] [E] [E] [E] [E] [E] [E] [E] [E] [E] [E] [E]  
 
 |-----------------|-----------------|-----------------|-----------------|
 |-----------------|-----------------|---------------6-|-----------------|
 |-2-2-2-2-2-2-2-2-|-2-2-2-2-2-2-2-2-|-4-4-4-4-4-4-4---|-4-4-4-4-4-4-4-4-|
 |-----------------|-----------------|-----------------|-----------------|

E E E E E E E E E E E E E E E E E E Q E E E E E E E E E E E E
 
 |-----------------|-----------------|----------------|-----------------|
 |-----------------|-----------------|----------------|-----------------|
 |-6-6-6-6-6-6-6-6-|-7-7-7-7-7-7-7-7-|-9-9------------|-----------------|
 |-----------------|-----------------|-----9--2-2-2-2-|-2-2-2-2-2-2-2-2-|

[E] [E] [E] [E] [E] [E] [E] [E] [E] [E] [E] [E] [E] [E] [E] [E] [E] [E] [E] [E] [E] [E] [E] [E] [E] [E] [E] [E] [E] [E] [E] [E]  
 
 |-----------------|-----------------|-----------------|-----------------|
 |-----------------|-----------------|---------------6-|-----------------|
 |-2-2-2-2-2-2-2-2-|-2-2-2-2-2-2-2-2-|-4-4-4-4-4-4-4---|-4-4-4-4-4-4-4-4-|
 |-----------------|-----------------|-----------------|-----------------|

E E E E E E E E E E E E E E E E E E Q E E E E E E E E E E E E
 
 |-----------------|-----------------|----------------|-----------------|
 |-----------------|-----------------|----------------|-----------------|
 |-6-6-6-6-6-6-6-6-|-7-7-7-7-7-7-7-7-|-9-9------------|-----------------|
 |-----------------|-----------------|-----9--2-2-2-2-|-2-2-2-2-2-2-2-2-|

E E Q H
 
 |-------------*|
 |-------------*|
 |-2-----------*|
 |-------------*|
 --------------------------------------------------------------------------------

Duration Legend
 
 ---------------
 W - whole; H - half; Q - quarter; E - 8th; S - 16th; T - 32nd; X - 64th; a - acciaccatura

+ - note tied to previous; . - note dotted; .. - note double dotted
Uncapitalized letters represent notes that are staccato (1/2 duration)
Irregular groupings are notated above the duration line
Duration letters will always appear directly above the note/fret number it represents the
duration for. Duration letters with no fret number below them represent rests. Multi-
bar rests are notated in the form Wxn, where n is the number of bars to rest for. Low
melody durations appear below the staff
Tablature Legend
 
 ----------------

h - hammer-on
p - pull-off
b - bend
pb - pre-bend
r - bend release (if no number after the r, then release immediately)
/\ - slide into or out of (from/to "nowhere")
s - legato slide
S - shift slide
- natural harmonic
(n) - artificial harmonic
n(n) - tapped harmonic
~ - vibrato
tr - trill
T - tap
TP - trem. picking
PM - palm muting
\n/ - tremolo bar dip; n = amount to dip
\n - tremolo bar down
n/ - tremolo bar up
/n\ - tremolo bar inverted dip
= - hold bend; also acts as connecting device for hammers/pulls
- volume swell (louder/softer)
x - on rhythm slash represents muted slash
o - on rhythm slash represents single note slash
Misc Legend
 
 -----------

| - bar
|| - double bar
||o - repeat start
o|| - repeat end
*| - double bar (ending)
: - bar (freetime)
$ - Segno
& - Coda
Tempo markers - = BPM(8/16=s8/s16), where s8 = swing 8ths, s16 = swing 16ths
 
 --------------------------------------------------------------------------------

** Generated using Power Tab Editor by Brad Larsen: The Official Power Tab Web Site

Important: The song above is NOT stored on the Chordie server. The original song is hosted at www.guitartabs.cc. Chordie works as a search engine and provides on-the-fly formatting. Chordie does not index songs against artists'/composers' will. To remove this song please click here.

Text color:
Chord color:
Chord grids: 
Font size:    
Page size: 

B E
Rate #1 of 5 versions

Login - add to songbook

SHARE PAGE  



You need to log in to post comments